Alien Ant Farm - Wish Chords & Tabs

 

Wish Chords & Tabs

Alien Ant Farm Chords & Tabs

Version: 1 Type: Bass Tab 0 ratings
1 star 2 stars 3 stars 4 stars 5 stars
comments

Wish Bass Tab

Band- Alien Ant Farm
Song- Wish

Intro
G:-------------|
D:-------------|
A:-------------|
E:-------------|
B:--XXX--X--X--|


Verse (bass comes in at "Wish, make a succotash  wish...)
G:--------------------------------------------------------------------|
D:--------------------------------------------------------------------|
A:--------------------------------------------------------------------|
E:--22222222222222222222222222222222----------------------------------|
B:----------------------------------44444444444444444444444444444444--|

G:-----------------------------------------------|
D:-----------------------------------------------|
A:-----------------------------------------------|
E:-----------------------------------------------|
B:--55555555555555555555555555555555-------------|

[ Tab from: http://www.guitartabs.cc/tabs/a/alien_ant_farm/wish_btab.html ]
Pre-Chorus (Don't break mine...)
G:-------------------------------------------------------------------|
D:-------------------------------------------------------------------|
A:--------------------------------0----------------------------------|
E:--2-2-2-2-2-2-2-2-2-2-2-2-2-2-2------------------------------------|
B:----------------------------------3-3-3-3-3-3-3-5-0-0-0-0-0-0-0-0--|


Pre-Chorus variation  1:12
G:--------------------------------------------------------------|
D:--------------------------------------------------------------|
A:--------------------------------0-----------------------------|
E:--2-2-2-2-2-2-2-2-2-2-2-2-2-2-2-------------------------------|
B:----------------------------------3-3-3-3-3-3-3-3-5--5--5--5--|


Chorus (Don't be the who...)
G:------------------------------------------|
D:------------------------------------------|
A:--------------0---------------------------|
E:--2-2-2-2-2-2-------------5-5-3-3---------|
B:----------------3-3-3-3-3-----------------|


Last Line in Chorus   1:44
G:----------------------------------------|
D:----------------------------------------|
A:----------------------------------------|
E:--2-2-2-------3-3-3-------5-5-3-3-------|
B:--------2-2-2-------3-3-3---------------|


Interlude Thingie (Chimes use to break my wish...)
G:--------------------------------------|
D:--------------------------------------|
A:--------------------------------------|
E:--5-4-3----------5-4-3--5-4-3---------|
B:---------4-3-2-----------------3-2-0--|
Comments