Alien Ant Farm - Summer Chords & Tabs

 

Summer Chords & Tabs

Alien Ant Farm Chords & Tabs

Version: 1 Type: Tab 0 ratings
1 star 2 stars 3 stars 4 stars 5 stars
comments

Summer Tab

Alien Ant Farm- Summer
Album: ANThology
tabbed by: alex
[ Tab from: http://www.guitartabs.cc/tabs/a/alien_ant_farm/summer_tab.html ]
Intro/Verse
E----------------------------------------------------------|
B----------------------------------------------------------|
G--6-6-6-x--4-4-4-x--4-4-4-x--4-4-4-x----------------------|
D--6-6-6-x--4-4-4-x--4-4-4-x--4-4-4-x--2-2-2-x--2-2-2-x----|
A--4-4-4-x--2-2-2-x--2-2-2-x--2-2-2-x--2-2-2-x--2-2-2-x----|
E--------------------------------------0-0-0-x--0-0-0-x----|

E----------------------------------------------------------|
B----------------------------------------------------------|
G----------------------------------------------------------|
D--7-7-7-x--6-6-6-x----------------------------------------|
A--7-7-7-x--6-6-6-x----------------------------------------|
E--5-5-5-x--4-4-4-x----------------------------------------|
Comments