Alien Ant Farm - Smooth Criminal Chords & Tabs

 

Smooth Criminal Chords & Tabs

Alien Ant Farm Chords & Tabs

Version: 4 Type: Tab 12 ratings
1 star 2 stars 3 stars 4 stars 5 stars
comments

Smooth Criminal Tab

                                Smooth Criminal
                                 Alien Ant Farm
these are the riffs needed to play the song, if i left something out, you should
be able to figure it out.
				                        tabbed by J. Wren
								joewren@yahoo.com


                                                                                
E------|----------------------------------------------------|-------------------
B------|----------------------------------------------------|-------------------
G------|----------------------------------------------------|-------------------
D---7--|----------------------------------------------------|--3-----3-----3----
A---7--|----------------------------------------------------|--3-----3-----3----
E---5--|--5--5--5--5--3--5--7--7--5--7--8--8--8--8--7\3--5--|--1--3--1--3--1----
                                                                                

                                                                                
E------------------------|-----|------------------------------------------------
B------------------------|-----|------------------------------------------------
G------------------------|-----|------------------------------------------------
D------3--2--3--2--3--7--|--7--|--7--7--7--7--7--7--5--5--5--5--3--3--3--3------
A------3--2--3--2--3--7--|--7--|--7--7--7--7--7--7--5--5--5--5--3--3--3--3------
E---3--1--0--1--0--1--5--|--5--|--5--5--5--5--5--5--3--3--3--3--1--1--1--1------
                                                                                

                                                                                
E---------------------------------------------------------------------|---------
B---------------------------------------------------------------------|---------
G---------------------------------------------------------------------|---------
D---5--3--5--7--7--7--7--7--7--7--5--5--5--5--3--3--3--3--3--2--5--7--|--2------
A---5--3--5--7--7--7--7--7--7--7--5--5--5--5--3--3--3--3--3--2--5--7--|--2------
E---3--1--3--5--5--5--5--5--5--5--3--3--3--3--1--1--1--1--1--0--3--5--|--0------
                                                                                
[ Tab from: http://www.guitartabs.cc/tabs/a/alien_ant_farm/smooth_criminal_tab_ver_4.html ]
    q        q     q                                                            
E---r--------r-----r--|---------------------------------------------------------
B---e--------e-----e--|---------------------------------------------------------
G---s--------s-----s--|---------------------------------------------------------
D---t--2--2--t--2--t--|---------------------------------------------------------
A------2--2-----2-----|---------------------------------------------------------
E------0--0-----0-----|---------------------------------------------------------
                                                                                

solo (this is how i play it but i think its different)

                                                                                
E------|---------------------------------------|-----------------------------------
B------|---------------------------------------|-----------------------------------
G------|--5p0--4p0--2p0--0h2--2--2--0h2--2--2--|-----------------------------------
D---3--|---------------------------------------|-----------------------------------
A---3--|---------------------------------------|-----------------------------------
E---1--|---------------------------------------|-----------------------------------
                                                                                



================================================================================
==                           TABLATURE EXPLANATION                            ==
================================================================================

----------                ----------                ----t---
----5h8--- Hammeron       ----(8)--- Ghost          ----6--- Tap
----------                ---------- Note           --------
----5p8--- Pulloff        ----------                --------

----------                ----------                -----p--
----5/8--- Slide Up       -----x---- Dead           -----7-- Pop
----------                ---------- Note           --s-----
----5\8--- Slide Down     ----------                --5----- Slap 

----------                ||------|| Repeat         --------
----5~~~-- Vibrato        ||*----*||                ---5^--- Bend
----------                ||*----*||                --------
----------                ||------||                --------

----------                ----------                --------
-4:------- Time           ----------                --------
-4:------- Signature      ----------                --------
----------                ----------                --------

Rhythm:
  w = whole note            W = dotted whole
  h = half note             H = dotted half
  q = quarter note          Q = dotted quarter
  e = eighth note           E = dotted eighth
  s = sixteenth note        S = dotted sixteenth
  t = 32nd note             T = dotted 32nd
  x = 64th note             X = dotted 64th
  ^ = triplet

================================================================================
==                   Created with BUCKET O' TAB for Windows                   ==
================================================================================
Comments