Alien Ant Farm - Smooth Criminal Chords & Tabs

 

Smooth Criminal Chords & Tabs

Alien Ant Farm Chords & Tabs

Version: 1 Type: Bass Tab 0 ratings
1 star 2 stars 3 stars 4 stars 5 stars
comments

Smooth Criminal Bass Tab

-------------------------------------------------------------------------------
			     SMOOTH CRIMINAL - ALIEN ANT FARM
-------------------------------------------------------------------------------

By: JAMES LOW whatisaturnip@yahoo.co.uk

  P.M.-----------------------------------------------------|
e|---------------------------------------------------------------------------|
B|---------------------------------------------------------------------------|
G|---------------------------------------------------------------------------|x7
D|---------------------------------------------------------------------------|
A|---------------------------------------------------------------------------|
E|-5---5--5--5--5--3--5--7--7-----5--7--8--8-----8--8--7-\-3-----------------|

  P.M.------------------------------------------|
e|---------------------------------------------------------------------------|
B|---------------------------------------------------------------------------|
G|---------------------------------------------------------------------------|
D|-----------------------------------------------------------3---------------|
A|-----------------------------------------------------------3---------------|
E|-5--5--5--5--3--5--7--7-----5--7--8--8-----8--8--7-\-3-----1---------------|

                                 P.M.           P.M.
e|---------------------------------------|-----------------------------------|
B|-----------play-1st+2nd----------------|-------play-3rd--------------------|
G|---------------------------------------|-----------------------------------|
D|-3----3-----3----3-/-5----5---------3--|-3----5----3----3----3--3--3--3----|
A|-3----3-----3----3-/-5----5---------3--|-3----5----3----3----3--3--3--3----|
E|-1----1-----1----1-/-3----3----0----1--|-1----3----1----1----1--1--1--1----|

e|---------------------------------------------------------------------------|
B|---------------------------------------------------------------------------|
G|---------------------------------------------------------------------------|
D|-2-----5--3--5--7------7-7-7-7-7-7--5--5--5-5--3--3----3--3--5--3--5--7----|
A|-2-----5--3--5--7------7-7-7-7-7-7--5--5--5-5--3--3----3--3--5--3--5--7----|
E|-0-----3--1--3--5------5-5-5-5-5-5--3--3--3-3--1--1----1--1--3--1--3--5----|

e|-------------------------------|--------------------|----------------------|
B|-------------------------------|---play 1st---------|---play-2nd-----------|
G|-------------------------------|--------------------|----------------------|
D|-7-7-7-7-7-7--5--5--5-5--3--3--|--3--3--2--2--5--7--|---3--3--2--2--5--3---|
A|-7-7-7-7-7-7--5--5--5-5--3--3--|--3--3--2--2--5--7--|---3--3--2--2--5--3---|
E|-5-5-5-5-5-5--3--3--3-3--1--1--|--1--1--0--0--3--5--|---1--1--0--0--3--1---|

                           P.M.                                            P.M.
e|--------------------------------|-----------------------|------------------|
B|-----play 1st+2nd---------------|----play-3rd-----------|------------------|
G|--------------------------------|-----------------------|------------------|
D|-3---3---3---3-/-5---5-------3--|--3----3-/-5--5--5--3--|-2----------------|
A|-3---3---3---3-/-5---5-------3--|--3----3-/-5--5--5--3--|-2---7--7----7----|
E|-1---1---1---1-/-3---3---0---1--|--1----1-/-3--3--3--1--|-0---0--0----0--5-|
[ Tab from: http://www.guitartabs.cc/tabs/a/alien_ant_farm/smooth_criminal_btab.html ]
e|---------------------------------------------------------------------------|
B|---------------------------------------------------------------------------|
G|-2-------------------------------------------------------------------------|
D|-2--(----------------------gradual-pick-scrape--------------------------)--|
A|-0-------------------------------------------------------------------------|
E|---------------------------------------------------------------------------|

e|---------------------------------------------------------------------------|
B|---------------------------------------------------------------------------|
G|-5-^-4-----4---------------------------------------------------------------|
D|--------7-----7-^-5-^-0--5-^-7--7--7--5-^-7--7--7--------------------------|
A|---------------------------------------------------------------------------|
E|---------------------------------------------------------------------------|

===============================================================================
/=slide    ^=pull off

-------------------------------------------------------------------------------
			     SMOOTH CRIMINAL - ALIEN ANT FARM
-------------------------------------------------------------------------------

By: JAMES LOW whatisaturnip@yahoo.co.uk

G|---------------------------------------------------------------------------|
D|---------------------------------------------------------------------------|
A|-----0--0--0--0-----0--2--2-----0--2--3--3----3--3--3--2-----0-------------|x7
E|-5---------------3----------------------------------------3----------------|

G|---------------------------------------------------------------------------|
D|---------------------------------------------------------------------------|
A|-0--0--0--0-----0--2--2-----0--2--3--3----3--3--3--2-----------------------|
E|-------------3----------------------------------------3--1-----------------|

G|-------------------------|----play-1st+2nd-------|----play-3rd-------------|
D|----------------3--------|-----3----------5------|----3--------------------|
A|-------------------------|-----------------------|-------------3*----------|
E|-1--1--0--0--1------0--0-|-1--------0--3-------1-|-1-------1-------1-------|

G|---------------------------------------------------------------------------|
D|----------------3----------------------------------------------------------|
A|---------------------------------------------------------------------------|
E|-1--1--0--0--1-------1---0--0----3--0--3--5--------------------------------|

G|---------------------------------------------------------------------------|
D|---------------------------------------------------------------------------|
A|---------------------------------------------------------------------------|
E|-5--5--5--5--5--5--3--3-----3--3--1--1-----1--1---3--1--3--5---------------|

G|-----------------------------------------|---------------------------------|
D|-----------------------------------------|-----play-1st--------------------|
A|-----------------------------------------|---------------------------------|
E|-5--5--5--5--5--5--3--3-----3--3--1--1---|--1--1---0--0--3--5--------------|

G|---------------------|-------------------------|-------play-1st+2nd--------|
D|-----play-2nd--------|-----------------3-------|------3-----------5--------|
A|---------------------|-------------------------|---------------------------|
E|--1--1---0--0--3--1--|--1--1--0--0--1-----0--0-|--1------0----3-------0---1|

G|-------play 3rd--------|---------------------------------------------------|
D|-----3-----------------|---------------------------------------------------|
A|-----------------------|---------------------------------------------------|
E|--1------0--3--3--3--1-|---0------0--0------0--5---------------------------|

===============================================================================
* = C note originally played one octave lower on 5-string bass
Comments