Alien Ant Farm - Movies Chords & Tabs

 

Movies Chords & Tabs

Alien Ant Farm Chords & Tabs

Version: 9 Type: Tab 0 ratings
1 star 2 stars 3 stars 4 stars 5 stars
comments

Movies Tab

Tabbed by: John             COOLEST SONG EVER!!!!!!!!!


Tuning: standard   w/distortion 

 intro     Do the X's a bunch of times
e|-------------------------------------------------------------------------|
B|---------x------------x--------------------------------------------------|
G|-8/-9-9--x----8/-9-9--x----14/-13-13-------------------------------------|
D|-8/-9-9--x----8/-9-9--x----14/-13-13-------------------------------------|
A|-6/-7-7--x----6/-7-7--x----12/-11-11-------------------------------------|
E|-0--0-0--x----0--0-0--x-----0---0--0---12-12-12-12--12-12--12-12---------|
                                         ------Harmonic-----------
Verse is the same as intro

  after "in summer we can taste the rain"   strum the 911 chord a bunch of times up and down 
e|-------------------------------------------------------------------------|
B|-------------------------------------------------------------------------|
G|-11----------------------------------------------------------------------|
D|-11----------------------------------------------------------------------|
A|-9-----------------------------------------------------------------------|
E|-------------------------------------------------------------------------|

Chorus    found out a different way to do it hint: some upstrokes are used
e|-------------------------------------------------------------------------|
B|-------------------------------------------------------------------------|
G|--8/9-9-8/9-9-8/9-9--9-99-9-9-9/-14-13-13-1313-13-11-11-11-11-11-11-11---|
D|--8/9-9-8/9-9-8/9-9--9-99-9-9-9/-14-13--x--x-x--x--x--x--x--x--x--x--x---|
A|--6/7-7-6/7-7-6/7-7--7-77-7-7-7/-12-11-11-1111-11--9--9--9--9--9--9--9---|
E|--0-----0-----0------0-00-0-0-0------------------------------------------|
x2
Verse

after "in winter we can taste the pain"  if u listen closely there are harmonics included
e|-------------------------------------------------------------------------|
B|-------------------------------------------------------------------------|
G|-14/-13-13--99-----------------------------------------------------------|
D|-14/-13-13--99-----------------------------------------------------------|
A|-12/-11-11--77-----------------------------------------------------------|
E|-0--------------2-2-2.6-2.6-4-4------------------------------------------|
                 ----Harmonic-----  (its a 2.6..sorta between fret 2,3)

dont know what its called "In our short yrs we come long way" part
e|-------------------------------------------------------------------------|
B|-------------------------------------------------------------------------|
G|-------------------------------------------------------------------------|
D|-------------------------------------------------------------------------|
A|-4-4-4-4-4-4-4-7-7-7-7-7-7-2-2-2-2-2-2-4-4-4-4---------------------------|
E|----------------------------------------------4-4-4-4-5-5-5-5-7-7-7-7-0-0-0-0--|E
   -----------PALM MUTE---------------------------------------------------
its pretty much following the bass line or the the vocal melody
[ Tab from: http://www.guitartabs.cc/tabs/a/alien_ant_farm/movies_tab_ver_9.html ]
a little part starting in "treat it bad and throw away"
e|-------------------------------------------------------------------------|
B|-------------------------------------------------------------------------|
G|-----------------11------------------------------------------------------|
D|--------6-6-6-6---x------------------------------------------------------|
A|--------x-x-x-x---9----------------------------------------------------
E|--4-4-4-4-4-4-4----------------------------------------------------------|
                 strum up+down   911 chord a bunch of times

Chorus number 2 same- do it 3 times

" i wont cry i wont scream"
e|-------------------------------------------------------------------------|
B|-------------------------------------------------------------------------|
G|--11-----9-9-9--9--------------------------------------------------------|
D|--11-----9-9-9--9--<
							
													
Comments