Alien Ant Farm - Movies Chords & Tabs

 

Movies Chords & Tabs

Alien Ant Farm Chords & Tabs

Version: 1 Type: Tab 0 ratings
1 star 2 stars 3 stars 4 stars 5 stars
comments

Movies Tab

alien ant farm-Movies/ guitar tab


------------------------------------------------ Repeat 4 times
------------------------------------------------
------------------------------------------------         
--9---(9)--9--(9)--7--9--7--9-------------------
--9---(9)--9--(9)--7--9--7--9-------------------
--9---(9)--9--(9)--7--9--7--9-------------------
[ Tab from: http://www.guitartabs.cc/tabs/a/alien_ant_farm/movies_tab.html ]
--------------------------------------------------------------------------------------------------------------------------------------------------------------------------------------------
--------------------------------------------------------------------------------------------------------------------------------------------------------------------------------------------
--------------------------------------------------------------------------------------------------------------------------------------------------------------------------------------------
--7--7-7--7-5--4--4--4--4--7--7--7-7--7--7--9--9--9--9--7--7-7--7-5--4--4--4--4--7--7--7-7--7--7--9--9--9--9--7
--7--7-7--7-5--4--4--4--4--7--7--7-7--7--7--9--9--9--9--7--7-7--7-5--4--4--4--4--7--7--7-7--7--7--9--9--9--9--7
--7--7-7--7-5--4--4--4--4--7--7--7-7--7--7--9--9--9--9--7--7-7--7-5--4--4--4--4--7--7--7-7--7--7--9--9--9--9--7

-------------------------------------------------------------------------------
-------------------------------------------------------------------------------
-------------------------------------------------------------------------------
9--9--9--9--9--9--11--7--7--7--7--7--7--9--5---
9--9--9--9--9--9--11--7--7--7--7--7--7--9--5---
9--9--9--9--9--9--11--7--7--7--7--7--7--9--5---

-----------
-----------
-----------
9--(9)----- mainly palm muted but every once its not
9--(9)-----
9--(9)-----


------------------
------------------
------5--7--5----- im not sure about the ending...but everything else is pretty much correct.
--6------------6--
------------------
------------------
Comments