Alien Ant Farm - Goodbye Chords & Tabs

 

Goodbye Chords & Tabs

Alien Ant Farm Chords & Tabs

Version: 1 Type: Bass Tab 0 ratings
1 star 2 stars 3 stars 4 stars 5 stars
comments

Goodbye Bass Tab

Band- Alien Ant Farm
Song- Goodbye

~= let ring
^^= double digit
/= slide up

I know Tye uses a six string but this can be played on a four.

Intro
Gb|-------------------------------------------------------------|
Db|-------------------------------------------------------------|
Ab|-4~--------------2~----3~--6~--4~----------------------------|
Db|-----6~--2~--4~--------------------6~--2~--4~--2~----1~--0~--|

Verse x2
Gb|-----------------------------------------------------------|
Db|-----------------------------------------------------------|
Ab|-4~--------------2~----3~----4~----------------------------|
Db|-----6~--2~--/4-----------1~-----6~--2~--/4--2~----1~--0~--|
[ Tab from: http://www.guitartabs.cc/tabs/a/alien_ant_farm/goodbye_btab.html ]
Chorus 
Gb|--------------------------------------------------------|
Db|---------------------------9--9--9--9--11--11--11--11---|
Ab|----------------------------77-77-77-77--77--77--77--77-|
Db|-777777777777-888888888888------------------------------|
                                          ^^  ^^  ^^  ^^
Gb|--------------------------------------------------------|
Db|---------------------------9--9--9--9--11--11--11--11---|
Ab|----------------------------77-77-77-77--77--77--77--77-|
Db|-777777777777-777777777777------------------------------|
                                          ^^  ^^  ^^  ^^
Intro Variation
Gb|-------------------------------|
Db|-------------------------------|
Ab|-4~--------------2~----3~--6~--|
Db|-----6~--2~--4~----------------|

Verse x2
Chorus
Intro Variation x2

Outro
Gb|-----------------------------------------------------------------------------|
Db|-----------------------------------------------------------------------------|
Ab|-777777666666-44444422222----------------------------------------------------|
Db|--------------------------7~----------888888888888-777777777776-444444444444-|

Gb|--------------------------------------------------------|
Db|---------------------------9--9--9--9--11--11--11--11---|
Ab|----------------------------77-77-77-77--77--77--77--77-|
Db|-777777777777-777777777777------------------------------|
                                          ^^  ^^  ^^  ^^
Gb|----------------------------------------------------------|
Db|-9--9--9--9--11--11--11--11--9--9--9--9--11--11--11--11---|
Ab|--77-77-77-77--77--77--77--77-77-77-77-77--77--77--77--77-| x2
Db|----------------------------------------------------------| 
                ^^  ^^  ^^  ^^              ^^  ^^  ^^  ^^
Gb|-----------------------|
Db|-9~--------------------|
Ab|-------------------7~--|
Db|-----------------------|
Comments