Alien Ant Farm - Denigrate Chords & Tabs

 

Denigrate Chords & Tabs

Alien Ant Farm Chords & Tabs

Version: 2 Type: Tab 0 ratings
1 star 2 stars 3 stars 4 stars 5 stars
comments

Denigrate Tab

   
SONG: Denigrate
ARTIST: Alien Ant Farm
TABBED BY: Nick Fogarty (muffinhead986@hotmail.com)

I only tabbed the intro coz it is the only good part of the song

S=SLIDE

Riff 1
E ----------------------------------------
B ----------------------------------------
G ----------------------------------------
D ---------------5-5-X-X-7-X-6-X-7-7-7S-9-
A -X-X-3-X-X-3-X-3-3-X-X-5-X-4-X-5-5-5S-7-  x1
E -X-X-1-X-X-1-X--------------------------
[ Tab from: http://www.guitartabs.cc/tabs/a/alien_ant_farm/denigrate_tab_ver_2.html ]
Riff 2
E ----------------------------------------
B ----------------------------------------
G ----------------------------------------
D ---------------5-5----------------------
A -X-X-3-X-X-3-X-3-3-5-5-4---------------- X1
E -X-X-1-X-X-1-X--------------------------

Riff 1x3 then

E ----------------------------------------
B ----------------------------------------
G ----------------------------------------
D ---------------5-5----------------------
A -X-X-1-X-X-1-X-3-3-5-4-5-0-1------------
E -X-X-1-X-X-1-X--------------------------

There you go, easy. please e-mail me if it is wrong
Comments