Alien Ant Farm - Death Day Chords & Tabs

 

Death Day Chords & Tabs

Alien Ant Farm Chords & Tabs

Version: 1 Type: Bass Tab

Death Day Bass Tab

   
----------------------------------------------------------------------------
                           DEATH DAY - Alien Ant Farm
----------------------------------------------------------------------------
Instrument: 5 String Bass

Tabbed by: M'R7'N (sitnam2@hotmail.com)

Tuning: Standard (B E A D G)

Great Bass By A Great Band...
This song kick ass...
I'm not 100% sure about this song as the bass is kind of complicated to tab
but this sound almost the right thing...
If you have corrections they're welcome....
And sorry, you have to figure out the timing!

*Let ring
h Hammer
/ Slide up
\ Slide Down


Intro (Guitar)

Verse 1 (13 sec.) 

G|----------------||
D|----------------||
A|-4*---2*--------||
E|---------2*--4-6||
B|----------------|| x3

G|--------------------||
D|--------------------||
A|-4*--2*-------------||
E|----------2*--44-66-||
B|-------46-----------|| x1

Verse 2 (38 sec.)
G|-----64-4-------|----------||
D|----6--6----1--4|----------||
A|-4--------2-----|--4-------||
E|---------4------|2---4--6--||
B|----------------|----------||

                       (eleven)
G|-----64-4-------|--------11||
D|----6--6----1--4|----------||
A|-4--------2-----|--4-2-----||
E|---------4------|2---------||
B|----------------|----------||

G|9-------------|----------||
D|----11--------|----------||
A|---------2----|--4-------||
E|--------------|2---4--6--||
B|------------4-|----------||

G|-----64-4-------|
D|----6--6----1--4|
A|-4--------2-----|
E|---------4------|
B|----------------|

Pre-chorus (1min 0sec)

G|----------------||
D|----------------||
A|----------------||
E|2-2222-4444-6666||
B|----------------||

Chorus (1min 3sec)
G|----------------|---------------||
D|----------------|------4/6--4---||
A|--------11111111|2222---------6\||
E|22222222--------|---------------||
B|----------------|---------------||

G|----------------|------------4-3||
D|----------------|-----4/6--4----||
A|--------11111111|2222-----------||
E|22222222--------|---------------||
B|----------------|---------------||

G|----------------|---4-----------||
D|4---2---2h4p2---|--4-4---4/664--||
A|-------------4-2|-------------64||
E|----------------|-----4---------||
B|----------------|---------------||

Last Bar of chorus 1 (1min 22sec)
G|----------------|---------------||
D|----------------|---------------||
A|--------11111111|2*---/////-14\\||
E|22222222--------|---------------||
B|----------------|---------------||

Repeat Verse 2 (1min 28sec)
Repeat Pre-chorus (1min 51sec)
Repeat Chorus (1min 54sec)

Last Bar of chorus 2 (2min 13sec)

G|----------------|-----------------||
D|----------------|------------4/6-4||
A|--------11111111|222222222222-----||
E|22222222--------|-----------------||
B|----------------|-----------------||

G|----------------|---------------||
D|----------------|---------------||
A|--------11111111|2*---/////-14\\||
E|22222222--------|---------------||
B|----------------|---------------||
[ Tab from: http://www.guitartabs.cc/tabs/a/alien_ant_farm/death_day_btab.html ]
Guitar-Solo (2min 26 sec)

G|-----6----------|----------||
D|----6--6----1--4|----------||
A|-4------4--2----|--4-------||
E|---------4------|2---4--6--||
B|----------------|----------|| x3

G|-----6----------|----------||
D|----6--6----1--4|----------||
A|-4------4-2-----|----------||
E|---------4------|2---44--66||
B|----------------|----------|| x3


Bridge (2min 51 sec)

G|------8---h9----|----- 8---h9----||
D|----------------|----------------||
A|----------------|-9--------------||
E|-9--------------|----------------||
B|----------------|----------------||

G|---------------------|
D|---------------------|
A|9-11-13-11-9-89-6--h8|
E|---------------------|
B|---------------------|

G|------8---h9----|----- 8---h9----||
D|----------------|----------------||
A|----------------|-9--------------||
E|-9--------------|----------------||
B|----------------|----------------||

G|---------------------|
D|---------------------|
A|9-11-13----89---6--h8|
E|---------------------|
B|---------------------|

Pre-chorus (3min 14sec)

G|-----------||
D|-----------||
A|-----------||
E|2-4444-6666||
B|-----------||

Last Chorus (3 min 16sec)

G|----------------|---------------||
D|----------------|------4/6--4---||
A|--------11111111|2222---------6\||
E|22222222--------|---------------||
B|----------------|---------------||

G|----------------|------------4-3||
D|----------------|-----4/6--4----||
A|--------11111111|2222-----------||
E|22222222--------|---------------||
B|----------------|---------------||

G|----------------|---4-----------||
D|4---2---2h4p2---|--4-4---4/664--||
A|-------------4-2|-------------64||
E|----------------|-----4---------||
B|----------------|---------------||

G|----------------|-----------------||
D|----------------|------------4/6-4||
A|--------11111111|222222222222-----||
E|22222222--------|-----------------||
B|----------------|-----------------||

G|----------------|---------------||
D|----------------|------4/6--4---||
A|--------11111111|2222---------6\||
E|22222222--------|---------------||
B|----------------|---------------||

G|----------------|------------4-3||
D|----------------|-----4/6--4----||
A|--------11111111|2222-----------||
E|22222222--------|---------------||
B|----------------|---------------||

G|----------------|---4-----------||
D|4---2---2h4p2---|--4-4---4/664--||
A|-------------4-2|-------------64||
E|----------------|-----4---------||
B|----------------|---------------||

G|----------------|-----------------||
D|----------------|------------4/6-4||
A|--------11111111|222222222222-----||
E|22222222--------|-----------------||
B|----------------|-----------------||

G|----------------|-----------------||
D|----------------|------------4/6-4||
A|--------11111111|222222222222-----||
E|22222222--------|-----------------||
B|----------------|-----------------||

G|----------------|--------1---------||
D|----------------|-----134-43131----||
A|--------11111111|--124---------42--||
E|22222222--------|24--------------2*||
B|----------------|------------------||