Alien Ant Farm - Courage Chords & Tabs

 

Courage Chords & Tabs

Alien Ant Farm Chords & Tabs

Version: 2 Type: Tab 0 ratings
1 star 2 stars 3 stars 4 stars 5 stars
comments

Courage Tab

This is the tab for Courage. if you have herd it then you know that it rocks!
 
THIS IS RIGHT!!!!!
[ Tab from: http://www.guitartabs.cc/tabs/a/alien_ant_farm/courage_tab_ver_2.html ]
----------------------------------------------------------------------
----------------------------------------------------------------------
----------------------------------------------------------------------
----------------------------------------------------------------------
-----4-4----------1---------------------------------------------------
----4---5-4-2-4-5--5-4-2----------------------------------------------


That's the first part. and then this.......


----------------------------------------------------------------------
----------------------------------------------------------------------
----------------------------------------------------------------------
----------------------------------------------------------------------
----4-6-7-0-9-7-7-4-7-0-----------------------------------------------
----4-6-7-0-9-7-6-4-7-0-----------------------------------------------


And that's it.
Comments