Alien Ant Farm - Courage Chords & Tabs

 

Courage Chords & Tabs

Alien Ant Farm Chords & Tabs

Version: 1 Type: Tab 1 rating
1 star 2 stars 3 stars 4 stars 5 stars
comments

Courage Tab

   
Song:Courage
Atrist:Alien Ant Farm
Album:Anthology
Tabbed by:Joey Poiriez
[ Tab from: http://www.guitartabs.cc/tabs/a/alien_ant_farm/courage_tab.html ]
Main riff/Intro:
--------------------- -----------  ---------  --------
--------------------- -----------  ---------  --------
--------------------- -----------  ---------  -------
--------------------- -----------  ---------  --------
----4-4-----------1-- --5-4-2-4--  --5-4-3--  --3424--
--2-----3-2-0-2-3-1-- --3-2-0-2--  --3-2-1--  --5202--

Verse:
-------------- 
-------------- 
--6--7--7--4-- 
-------------- 
--4--5--7--2-- 
-------------- 

Chorus (F#):
-------------------------------------
-------------------------------------
-------------------------------------
--------6-7-7--------------7---------
----4---6-7-5-9--9-7-6-4-6-5--2-3----
----2---4-5---7--7-5-6-2-4----0-1----

Comments