Alien Ant Farm - Courage Chords & Tabs

 

Courage Chords & Tabs

Alien Ant Farm Chords & Tabs

Version: 1 Type: Bass Tab 0 ratings
1 star 2 stars 3 stars 4 stars 5 stars
comments

Courage Bass Tab

Song: Courage
Artist: Alien Ant Farm
Album: ANThology
Transcribed by: Alan The Wise (spfan607@yahoo.com)

This is in standard tuning and it actually isnt very hard when you compare it
to the usual AAF bass lines. Just practice the speed and you should have no 
problem with it. A blast to play live!! I tabbed it for a 5 string since it's
MUCH easier than playing it in dropped-D. TRUST ME. You can go ahead and try
it in dropped-D, but playing the verse gets rather difficult and you have to
reach a LOT farther. I recomend you just keep it in standard and if you don't
have a 5-string that you just bump the low D up an octave. Enjoy!

Verse
G:--------------------------------------------------------------
D:--------------------------------------------------------------
A:------4--4-----------1------------4--4-----------1------------
E:--2-2------3-2-0-2-3----3-2-0-2--------3-2-0-2-3----3-2-0-2---
B:--------------------------------------------------------------


G:---------------------------------------------------
D:---------------------------------------------------
A:--4-4-----------1---------4-4-----------1----------
E:------3-2-0-2-3---3-2--1------3-2-0-2-3---3-2-0-2--
B:---------------------------------------------------

Last line before chorus
G:-----------------------
D:-----------------------
A:-4-4-----------1-------
E:-----3-2-0-2-3----0----
B:-----------------------


Chorus (I never said you were a mistake at all...)
G:---------------------------------------------- 
D:----------------------------------------------
A:----------------------------------------------
E:--2----4--5-------7--5--4----2--5-------0--1--
B:-------------3---------------------3----------

Verse ver 2 (starts at 1:17)
G:------------------------------------------
D:------------------------------------------
A:--4--4--2--0---2---4----------------------
E:-----------------------5--5--4--2---5-----
B:---------------------------------------3--
[ Tab from: http://www.guitartabs.cc/tabs/a/alien_ant_farm/courage_btab.html ]
G:-------------------------------------------
D:-------------------------------------------
A:--2--2--0------0---4-----------------------
E:-----------4-----------2--2--4--5---2---4--
B:-------------------------------------------

Chorus ver 2 (starts at 1:53)
G:----------------------------------------------------------------------
D:----------------------------------------------------------------------
A:---------------------------------------------2--0---------------------
E:--2-2-2-2-2-2-2-2-2--4--5--------------------------4-4-4-4-4-4-4-4-4--
B:---------------------------3-3-3-3-3-3-3-3-3--------------------------

G:------------------------------------
D:------------------------------------
A:-----0------------------------------
E:--2------------------------0--1--2--
B:--------3-3-3-3-3-3-3-3-3-----------

Bridge (You should try... these dismal moods have become contagious)
G:--------------------------------------------------------------
D:---------------------------------------------------------------
A:--------4-4-4-4--------------4-4-4-4---------------5-5-5-------
E:--2--2----------2--2---2--2----------2--2---4--4---------4--4--
B:---------------------------------------------------------------

G:-------------------------------  
D:-------------------------------
A:------------2-4-4-4-2-4-4-4----
E:--5--5---5---------------------
B:-------------------------------

last line, last time through the bridge
G:-----------------------------------
D:-----------------------------------
A:--2-4-4-4-2-4-4-4------------------
E:------------------2-4-4-4-2-4-4-4--
B:-----------------------------------

LAST NOTE
G:---------
D:---------
A:---------
E:--2/15---
B:---------

THE END
Questions, Comments, Corrections, and Hate Mail can be sent to spfan607@yahoo.com

Please realize that if you request a song for me to tab out that the odds of 
me tabbing it are not so high, consittering it takes a good deal of time.
But feel free to ask anyway! I'll still try my best.
Comments