Alien Ant Farm - Calico Chords & Tabs

 

Calico Chords & Tabs

Alien Ant Farm Chords & Tabs

Version: 2 Type: Tab 0 ratings
1 star 2 stars 3 stars 4 stars 5 stars
comments

Calico Tab

Artist:Alien Ant Farm
Song:Calico
Album:Anthology
Tuning:Nat./Standard tuning



Intro/Verse
e|---------------------------------------------------------------------------|
B|---------------------------3-3-3-3-3-3-------------------------------------|
G|-0-0-0-0-0-0--4-4-4-4-4-4--4-3-4-3-4-3--6-6-6-6-6-6------------------------|
D|-2-0-2-0-2-0--5-4-5-4-5-4---------------7-6-7-6-7-6------------------------|
A|---------------------------------------------------------------------------|
E|---------------------------------------------------------------------------|

e|---------------------------------------------------------------------------|
B|---------------------------------------------------------------------------|
G|-4-4-4-4-4-4---------------0-0-0-0-0-0--2-2-2-2-2-2------------------------|
D|-5-4-5-4-5-4--4-4-4-4-4-4--2-0-2-0-2-0--4-2-4-2-4-2------------------------|
A|--------------5-4-5-4-5-4--------------------------------------------------|
E|---------------------------------------------------------------------------|
[ Tab from: http://www.guitartabs.cc/tabs/a/alien_ant_farm/calico_tab_ver_2.html ]
Chorus
e|---------------------------------------------------------------------------|
B|---------------------------------------------------------------------------|
G|---------------------------------------------------------------------------|
D|-5-5-x-x-5-5-x-x-7-7-x-x-7-7-x-x-8-8-x-x-8-8-x-x-10-10-x-x-10-10-x-x-------|
A|-5-5-x-x-5-5-x-x-7-7-x-x-7-7-x-x-8-8-x-x-8-8-x-x-10-10-x-x-10-10-x-x-------|
E|-3-3-x-x-3-3-x-x-5-5-x-x-5-5-x-x-6-6-x-x-6-6-x-x--8--8-x-x--8--8-x-x-------|

Bridge
e|---------------------------------------------------------------------------|
B|---------------------------------------------------------------------------|
G|------11--11\--------------------------------------------------------------|
D|-8----11--11\--8-6-6-x-x-6-6-x-x-------------------------------------------|
A|-8-----9---9\--8-6-6-x-x-6-6-x-x-------------------------------------------|
E|-6-------------6-4-4-x-x-4-4-x-x-------------------------------------------|

e|---------------------------------------------------------------------------|
B|---------------------------------------------------------------------------|
G|-7-9-11-12-11-9-7-6---7-9-11-12-11-9-7-6---11-12-14-16-14-12-11-9----------|
D|---------------------------------------------------------------------------|
A|-5-7--9-10--9-7-5-4---5-7--9-10--9-7-5-4----9-10-12-14-12-10--9-7----------|
E|---------------------------------------------------------------------------|

e|---------------------------------------------------------------------------|
B|---------------------------------------------------------------------------|
G|-12-7-11-6-7-9-11-12-14----------------------------------------------------|
D|---------------------------------------------------------------------------|
A|-10-5--9-4-5-7--9-10-12----------------------------------------------------|
E|---------------------------------------------------------------------------| 
Comments