Alien Ant Farm - Calico Chords & Tabs

 

Calico Chords & Tabs

Alien Ant Farm Chords & Tabs

Version: 1 Type: Bass Tab 0 ratings
1 star 2 stars 3 stars 4 stars 5 stars
comments

Calico Bass Tab

===========================================================
	Artist: Alien Ant Farm
	  Song: Calico
	 Album: ANTology
===========================================================

Tabbed: TheMutts @ Ultimate-Guitar.com
Email: st_jimmy_themutts@yahoo.com

Tuning: Standard
[ Tab from: http://www.guitartabs.cc/tabs/a/alien_ant_farm/calico_btab.html ]
-----------------
Intro
-----------------
"Sooo!"
|-----------------------------|
|-----------------------------|
|-2-2-2-2--0-0-0-0------------|2x
|-------------------2p0-0-0-0-|


-----------------
Verse
-----------------

|---------------------|
|---------------------|
|---------------------|repeat as needed
|-4----2----0----0----|



-----------------
Chorus
-----------------

|----------------------------|
|----------------------------|
|-4-2-2-2--------------------|2x
|----------2-4-2-2--2-0-0-0--|
Comments