Alien Ant Farm - Bad Morning Chords & Tabs

 

Bad Morning Chords & Tabs

Alien Ant Farm Chords & Tabs

Version: 1 Type: Tab

Bad Morning Tab

Bad Morning 
Alien Ant Farm 
Up in the Attic

Note: strumming not shown 100%


Tuning:Standard

Intro
e|---------------------------------------------------------------------------|
B|---------------------------------------------------------------------------|
G|---------------------------------------------------------------------------|
D|--4-4--2-6/7-6-2-4-4-2-2-2-4-2---------------------------------------------|
A|--4-4--0-4/5-4-0-2-2-0-0-0-2-0---------------------------------------------|
E|--2-2----------------------------------------------------------------------|

e|---------------------------------------------------------------------------|
B|---------------------------------------------------------------------------|
G|---------------------------------------------------------------------------|
D|--4-4--2-6/7-6-2-4-4-4-4-5-5-5---------------------------------------------|
A|--4-4--0-4/5-4-0-2-2-2-2-3-3-3---------------------------------------------|
E|--2-2----------------------------------------------------------------------|

                                                         
 Verse
e|-----------5-5-------7-7-0-0------------------0-0------7-7-0-0-----------|
B|-----------5-5-------7-7-0-0------------------0-0------7-7-0-0-----------|
G|-----------5-5-------8-8-0-0------------------0-0------8-8-0-0-----------|
D|-----------5-5--4/-7-9-9-0-0-9/-10------------0-0-4/-7-9-9-0-0-9/-10-----|
A|----4-4-4-------4/-7-9-9-----x/-x------4-4-4------4/-7-9-9-----x/-x------|
E|--0-2-2-2-------2/-5-7-7-----7/-8----0-2-2-2------2/-5-7-7-----7/-8------|
[ Tab from: http://www.guitartabs.cc/tabs/a/alien_ant_farm/bad_morning_tab.html ]
continued.."step in the water,cold"  tremelo pick
e|---------------------------------------------------------------------------|
B|--------------------10-----------------------------------------------------|
G|-11-9--8-----11-9-8-8------------------------------------------------------|
D|-x--x--x-7---x--x-x-x------------------------------------------------------|
A|-9--9--9-9---9--9-9-9------------------------------------------------------|
E|---------------------------------------------------------------------------|

Pre Chorus: "My mamma told me"                  second time harmonics
e|-------------------------------------------------------------------------|
B|--9-10~9-10~-9-10~9-10~-------------------(7)----------------------------|
G|--------------------------------------------(7)---(7)--------------------|
D|----------------------------X-X-X-X------------(7)-----------------------|
A|----------------------------X-X-X-X--------------------------------------|
E|----------------------------X-X-X-X--------------------------------------|


Chorus:  "And its true, theres no feeling"
e|-------------------------------------------------------------------------|
B|-------------------------------------------------------------------------|
G|-------------------------------------------------------------------------|
D|--4--2---2--4----4--3--2--4----4--2--2--4--------------------------------|
A|--4--2---0--2----4--4--0--2----4--2--0--2--------------------------------|
E|--2--0-----------2--1----------2--0--------------------------------------|


"1,2,3 bad morning" play intro

Interlude..."i wish i never woke up this morning"
e|-----5-5-7-5---------------9-----9--------5-5-7-5------------------------|
B|------------------------------7----7-------------------------------------|
G|----------------------------------------------------8-x-8--7/8-7/8-------|
D|--0-------------4----------------------0------------x-x-x--x/x-x/x-------|
A|--------------6-------------------------------------6-x-6--5/6-5/6-------|
E|-------------------------------------------------------------------------|


Solo
e|-21-21-21-21-21---------------21-21-21-21-21-----------------------------|