Alien Ant Farm - Attitude Chords & Tabs

 

Attitude Chords & Tabs

Alien Ant Farm Chords & Tabs

Version: 3 Type: Tab 0 ratings
1 star 2 stars 3 stars 4 stars 5 stars
comments

Attitude Tab

Attitude-Alien Ant Farm
ANThology

( ) = harmonic


Intro: w/ compression and delay

e-----------------------------------------------------------------
b-----------------------------------------------------------------
g--------------------------------------------------------------7--
d-----------------------------------------------------------------
a-----------------------------------------------------------------
e-----------------------------------------------------------------

x4
e-----------------------------------------------------------------
b-----------------------------------------------------------------
g---7---------7-----7---------9-----9---------6-----6---------7---
d-9---7-9-9-7---9-9---7-9-9-7---9-9---7-9-9-7---9-9---7-9-9-7---9-
a-----------------------------------------------------------------
e-----------------------------------------------------------------

e-----------------------------------------------------------------
b-----------------------------------------------------------------
g---7---------7-----7-------7-----7---------7-----7---------------
d-9---7-9-9-7---9-9---7-9-9---9-9---7-9-9-7---9-7---9-7-----------
a-----------------------------------------------------------------
e-----------------------------------------------------------------

bass, then

Verses:

e-----------------------------------------
b-----------------------------------------
g-----------------------------------------
d-----------------------------------------
a----5-----5--------7------9------9-------
e-7-----7-------7/9---/10-----10-----10\--

e-----------------------------------------
b-----------------------------------------
g-----------------------------------------
d-----------------------------------------
a----4-----4--------------2-----2-------4-
e-5-----5------5\------3-----3------3/5---

e-----------------------------------------
b-----------------------------------------
g-----------------------------------------
d-----------------------------------------
a----5-----5--------9------9------9-------
e-7-----7-------7/9---/10-----10-----10\--

e-----------------------------------------
b-----------------------------------------
g-----------------------------------------
d-------------------------5-----5-------9-
a----4-----4-----------7-----7------7/9---
e-5-----5-------5-------------------------

Pre Chorus:

e-----------------------------------------------------------------
b-----------------------------------------------------------------
g----------------------------------0-------0----0-----------------
d----5--5--------7--7-------------12------12---12-----------------
a----5--5--------7--7-----9----9---9--9---------------------------
e-7-------7/9-9-------9--10---10-----10------------10\------------

e-----------------------------------------------------------------
b-----------------------------------------------------------------
g-----------------------------------------------------------------
d-7----7--7---------7--7----5--5--5-------5-5-7-------------------
a-7--7-7--9-------7-7--7----5--5--5-------5-5-7-------------------
e-9--9------9--9---------9--7-------7--7------9--9/10-------------

e-----------------------------------------------------------------
b-----------------------------------------------------------------
g----------------------------------0-------0----0-----------------
d----5--5--------7--7-------------12------12---12-----------------
a----5--5--------7--7-----9----9---9--9---------------------------
e-7-------7/9-9-------9--10---10-----10------------10\------------

e-----------------------------------------------------------------
b---------------------------5---5--5-5---5------------------------
g---------------------------5---5--5-5---5------------------------
d-7----7--7---------7--7----5---5--5-5---5---5/7--7----7--7-------
a-7--7-7--9-------7-7--7----7---7--7-7---7---7/9--9----9--9-------
e-9--9------9--9---------9----------------------------------------


e-----------------------------------------------------------------
b-------------(7)-------------------------------------------------
g-(7)---------------------(7)----------(5)------------------------
d-------(7)---------------------(7)---------(5)-------------------
a-----------------------------------------------------------------
e-----------------------------------------------------------------

Chorus:

e-----------------------------------------------------------------
b-----------------------------------------------------------------
g-----------------------------------------------------------------
d--------------7--7-7-7-7--5--4----------------7--7-7-7-7--5--4---
a-5---5-5---5---------------------5---5-5---5---------------------
e-----------------------------------------------------------------
[ Tab from: http://www.guitartabs.cc/tabs/a/alien_ant_farm/attitude_tab_ver_3.html ]
e-----------------------------------------------------------------
b-----------------------------------------------------------------
g-----------------------------------------------------------------
d--------------7--7-7-7-7--5--4----------------7--7-7-7-7--5--4---
a-7---7-7---7-----------------------------------------------------
e---------------------------------3---3-3---3---------------------

e-----------------------------------------------------------------
b-----------------------------------------------------------------
g-----------------------------------------------------------------
d--------------7--7-7-7-7--5--4----------------7--7-7-7-7--5--4---
a-5---5-5---5---------------------5---5-5---5---------------------
e-----------------------------------------------------------------

e-----------------------------------------------------------------
b-----------------------------------------------------------------
g-----------------------------------------------------------------
d--------------7--7-7-7-7--5--4-------------7--7--7-7-7-7--5--4---
a-7---7-7---7---------------------5---5-5-------------------------
e-----------------------------------------------------------------

Bridge:

x4
e-----------------------------------------------------------------
b-----------------------------------------------------------------
g---7---------7-----7---------9-----9---------6-----6---------7---
d-9---7-9-9-7---9-9---7-9-9-7---9-9---7-9-9-7---9-9---7-9-9-7---9-
a-----------------------------------------------------------------
e-----------------------------------------------------------------

then

e-------------------------------------------
b-------------------------------------------
g----7-----------9-------9-----------11-----
d-11---9-11-11-9---11-11---9-11-11-9----11--
a-------------------------------------------
e-------------------------------------------

e-----------------------------------------------------
b-----------------------------------------------------
g----11-----------8---------8-------8-----------9-----
d-11----9-11-11-9---11-11-9---11-11---9-11-11-9---11--
a-----------------------------------------------------
e-----------------------------------------------------

e-------------------------------------------
b-------------------------------------------
g----9-----------8-------9-----------11-----
d-11---9-11-11-9---11-11---9-11-11-9----11--
a-------------------------------------------
e-------------------------------------------

e-------------------------------------------
b-------------------------------------------
g----11-----------8-------8-----------9-----
d-11----9-11-11-9---11-11---9-11-11-9---11--
a-------------------------------------------
e-------------------------------------------

e-----------------------------------------------------------------
b-----------------------------------------------------------------
g---9---------7-----7---------9-----9---------6-----6---------7---
d-9---7-9-9-7---9-9---7-9-9-7---9-9---7-9-9-7---9-9---7-9-9-7---9-
a-----------------------------------------------------------------
e-----------------------------------------------------------------

e-----------------------------------------------------------------
b-----------------------------------------------------------------
g---7---------7-----7---------9-----9---------6-----6---------7---
d-9---7-9-9-7---9-9---7-9-9-7---9-9---7-9-9-7---9-9---7-9-9-7---9-
a-----------------------------------------------------------------
e-----------------------------------------------------------------

e-----------------------------------------------------------------
b-----------------------------------------------------------------
g---7---------7-----7---------7-----7---------7-----7---------7---
d-9---7-9-9-7---9-9---7-9-9-7---9-9---7-9-9-7---9-9---7-9-9-7---9-
a-----------------------------------------------------------------
e-----------------------------------------------------------------

e-----------------------------------------------------------------
b-----------------------------------------------------------------
g---7---------7-----7---------7-----7---------7-------------------
d-9---7-9-9-7---9-9---7-9-9-7---9-9---7-9-9-7---9-7---------------
a-----------------------------------------------------------------
e-----------------------------------------------------------------

Outro: let ring

e-----------------------------------------------------------------
b---------------------------------------------------------(7)-----
g-7-----------------------------------------------(7)-------------
d-9---------------------------------------------------(7)---------
a-5---------------------------------------------------------------
e-----------------------------------------------------------------


thatís all

trevor jones
timmy91199@yahoo.ca
Comments