Alien Ant Farm - Attitude Chords & Tabs

 

Attitude Chords & Tabs

Alien Ant Farm Chords & Tabs

Version: 2 Type: Bass Tab 0 ratings
1 star 2 stars 3 stars 4 stars 5 stars
comments

Attitude Bass Tab

Tye uses a 5 String Or 6 String For This Song it doesn’t matter because he doesn’t 
use the high C. I transcribed It For a 4 String Bass	

----------- 
Key 
----------- 
*- Harmonic 
h- Hammer on
--------------
Intro: 2X
--------------
G:-------------------------------------------------7--
D:--2------4------5------7------9------5-----4--------
A:-----------------------------------------------5--5-
E:0---0--2---2--3---3--5---5--7---7--3---3--2--2------
------------
After The Second Time Do This Till The verse

------------Intro B

G:------7----------7--------------
D:--------------------------------
A:---5-----5----5----5------------
E:-------------------------------- 

------------
Verse:12X
------------

G:------------------
D:------------------
A:------------------
E:---7--5--5-------- 

After The 12th Time Keep repeating till the chorus but do this after each verse riff
[ Tab from: http://www.guitartabs.cc/tabs/a/alien_ant_farm/attitude_btab_ver_2.html ]
-----------------------
G:---------------------
D:---------------------
A:------0------0-------
E:--0h2---0h2---------- 

------------------
The Chorus 2X
------------------

G:-----4-------6------7------7--------------6------9----
D:-----------------------------------7------------------
A:--2----2--4----4--5---5--5---5----------4---4--7---7--
E:--------------------------------5----5----------------

-------------------
Cool Bass Part:3x
-------------------

G:--5*---7*---9*-- 
D:----------------
A:----------------
E:----------------

-------------------
Then This Once
-------------------

G:---5*--7*--7*-
D:--------------
A:--------------
E:--------------

--------------------
Verse 12x
--------------------
Chorus 2x
--------------------
Intro at 2:50 4X
--------------------
Then Intro B Till Verse
---------------------
Then Verse 4x
---------------------
Then Ending 
---------------------
G:---5*--7*--9*----
D:-----------------
A:-----------------
E:-----------------
This is my first tab its all right im sure of it u just gotta check for timing and the
times u do each riff might b off a little. Have Fun
Comments