Alicia Keys - If I Ain't Got You Chords & Tabs

 

If I Ain't Got You Chords & Tabs

Alicia Keys Chords & Tabs

Version: 3 Type: Tab 0 ratings
1 star 2 stars 3 stars 4 stars 5 stars
comments

If I Ain't Got You Tab

   
Intro:

e--0-----0-----0-----|-|-------------------|-|-------------------|-|
B----0-----0-----0---|-|-3-----3-----3-----|-|-1-----1-----1-----|-|
G------0-----0-----0-|2|---2-----2-----2---|2|---0-----0-----0---|2|
D--------------------|x|-----4 ----4-----4-|x|-----2-----2-----2-|x|
A--------------------|-|-------------------|-|-------------------|-|
E--------------------|-|-------------------|-|-------------------|-|

e-------------------------------------------|
B-0-----0------0------0------1------3-------|
G------------------------------0------2-----|
D---4------4------4------4-------2------4---|
A-----5------5------5------5----------------|
E-------------------------------------------|

e-0-----0-----0-----|-|--------------------------------------|
B---0-----0-----0---|-|-3-----3-----3-----3-----3-----2------|
G-----0-----0-----0-|2|---2-----2-----2-----2-----2-----1----|
D-------------------|x|-----4-----4-----4-----4-----4-----3--|
A-------------------|-|--------------------------------------|
E-------------------|-|--------------------------------------|

e-------------------|-|--2------|
B-1-----1-----1-----|-|---------|
G---0-----0-----0---|2|---------|
D-----2-----2-----2-|x|---------|
A-------------------|-|---------|
E-------------------|-|--3--0h3-|


Verse:
GM7                        EM7
 Some people live for the fortune
AM7                       DM7
Some people live just for the fame
GM7                      G#M7
Some people live for the power, yeah
AM7                      DM7
Some people live just to play the game

Pre Chorus:
[ Tab from: http://www.guitartabs.cc/tabs/a/alicia_keys/if_i_aint_got_you_tab_ver_3.html ]
GM7          AM7          BM7      AM7
Some people think that the physical things
GM7          BM7
Define what's within
C7-BM7-AM7  
  And I've 
GM7      AM7  
been there before
BM7            AM7
But that life's a bore
GM7      AM7        BM7...
So full of the superficial

[Chorus:]
BM7         C7
Some people want it all
                 BM7
But I don't want nothing at all
           AM7
If it ain't you baby
            GM7           
If I ain't got you baby
AM7-BM7-C7      
Some people want diamond rings
            BM7
Some just want everything
               BbM7-AM7
But everything means nothing
AM7
If I ain't got you, Yeah


GM7                        EM7
Some people search for a fountain
AM7                       DM7
That promises forever young
GM7                        G#M7
Some people need three dozen roses
AM7                       DM7
And that's the only way to prove you love him

GM7          AM7          BM7      AM7
Hand me the world on a silver platter
GM7          BM7       C7-BM7-AM7  
And what good would it be
GM7      AM7 
With no one to share 
GM7      AM7        BM7...
With no one who truly cares for me 

[Repeat Chorus:]


[Repeat intro]
If I ain't got you with me baby
So nothing in this whole wide world don't mean a thing
If I ain't got you with me baby

Chords
  GM7 G#M7  EM7  AM7  DM7  BM7  BbM7  C7
e -2-  -1-  -0-  -0-  -2-  -2-  -1-  -x-
B -0-  -0-  -3-  -1-  -1-  -3-  -2-  -x-
G -0-  -1-  -0-  -0-  -2-  -2-  -1-  -0-
D -0-  -x-  -2-  -2-  -0-  -4-  -3-  -2-
A -x-  -x-  -2-  -0-  -x-  -2-  -1-  -3-
E -3-  -x-  -x-  -x-  -x-  -x-  -x-  -x-

**07-24-03**
Comments