Alice In Chains - Would? Chords & Tabs

 

Would? Chords & Tabs

Alice In Chains Chords & Tabs

Version: 5 Type: Tab 0 ratings
1 star 2 stars 3 stars 4 stars 5 stars
comments

Would? Tab

I love this song intro.....

Intro
e---------------------------------------------------------------|
b---------5-----------------------------------------------------|
g------4-------------4h6---4h6---4--4-----4h6----4h6--4--4------|
d--5-----------------4-----4-----4--5-----4------4----4--5------|
a---------------------------------------------------------------|
e---------------------------------------------------------------|

e---------------------------------------------------------------|
b-----------5---------------------------------------------------|
g--------4-------------4h6---4h6---4--4-----4h6----4h6--4--4----|
d---/5-----------------4-----4-----4--5-----4------4----4--5----|
a---------------------------------------------------------------|
e---------------------------------------------------------------|

Verse
e-------------------------------------------------------|
b-------------------------------------------------------|
g-------------------------------------------------------|
d----------2--------------------------------------------|
a-------2--------2h4--2h4--2---2-----2h4--2h4---2----2--|
e--2/3-----------2----2----2---3-----2----2-----2----3--|

e------------------------------------------------------|
b------------------------------------------------------|
g------------------------------------------------------|
d----------2-------------------------------------------|
a-------2--------2h4--2h4--2---2-----2h4--2h4---2---2--|
e--2/3-----------2----2----2---3-----2----2-----2---3--|


e-------------------------3-------3----3----3------|
b-------3---3---3------3--3-------3----3----3---0--|
g-------0---0---0------0--0-------0----0----0---0--|
d-------0---0---0------0--0-------0----0----0---0--|
a-------2---2---2------2--2-------2----2----2------|
e--3----3---3---3------3--3-------3----3----3------|





Chorus - repeat 4 times
e----------------------3-3--3-3--3-3--3-3--3-3--3-3--|
b----------------------3-3--3-3--3-3--3-3--3-3--3-3--|
g--4--4-4--4--4-4--4-4-0-0--0-0--0-0--0-0--0-0--0-0--|
d--4--4-4--4--4-4--4-4-0-0--0-0--0-0--0-0--0-0--0-0--|
a--2--2-2--2--2-2--2-2-0-0--0-0--0-0--0-0--0-0--0-0--|
e----------------------3-3--3-3--3-3--3-3--3-3--3-3--|
[ Tab from: http://www.guitartabs.cc/tabs/a/alice_in_chains/would_tab_ver_5.html ]
Solo - guitar1
e--------------------------------------------------------------------------|
b--------------------------------------------------------------------------|
g--6h7p6~~~~~~~/11~~~~~9-11-11^-rb(11)--9-11-9-11-9------------------------|
d--------------------------------------------------------------11----11~~~~|
a--------------------------------------------------------------------------|
e--------------------------------------------------------------------------|
       guitar2 play twice w/ guitar1
e---------------------------------------------------|
b---------------------------------------------------|
g---------------------------------------------------|
d------------------------------------------2--------|
a--4--4--4----4----4-----4--------------2--2--------|
e--2--2--2--0-2-------0--3--3--3--0--3--3--3--0--3--|

e-------------------------------------------------------|
b-------------------------------------------------------|
g-------------------------------------------------------|
d----------------------------------------------------2--|
a--2h4--4-4-4-4--4-------4-----------------2-2----2-----|
e--2----2-2-2-2------0---3---3--3--0--0--3-3-3-3--------|

e--------------------------------------------------|
b--------------------------------------------------|
g--------------------------------------------------|
d--9-7-9^hb9rb(9)-7---7-------------------7--9/11--|
a--------------------9-----9-7-9-9-7-7-7-----------|
e--------------------------------------------------|

e---------------------------------------------------------------|
b---------------10------12/\hb12hb12rb(12)10-------10-----------|
g--9-11-11---11----11--------------------------11------------2--|
d------------------------------------------------------------2--|
a---------------------------------------------------------------|
e---------------------------------------------------------------|


Bridge - play twice
e--2---2-2-2-------------------------4-4--4--4--4-4-4-4--|
b--3---3-3-3--6-6-6--6-6-------------4-4--4--4--4-4-4-4--|
g--2---2-2-2--5-5-5--5-5-------------5-5--5--5--5-5-5-5--|
d--0---0-0-0--4-4-4--4-4-------------6-6--6--6--6-6-6-6--|
a-------------5-5-5--5-5--5-5--5--5--6-6--6--6--6-6-6-6--|
e---------------------------4--4--4--4-4--4--4--4-4-4-4--|

e--------3--3-3--3-3--3--3-3-3-3--------------------------------|
b--------3--3-3--3-3--3--3-3-3-3--------------------------------|
g--------4--4-4--4-4--4--4-4-4-4---1-1--1-1-1--1-1--1--1-1-1-1--|
d--------5--5-5--5-5--5--5-5-5-5---2-2--2-2-2--2-2--2--2-2-2-2--|
a--5--5--5--5-5--5-5--5--5-5-5-5---2-2--2-2-2--2-2--2--2-2-2-2--|
e--3--3--3--3-3--3-3--3--3-3-3-3---0-0--0-0-0--0-0--0--0-0-0-0--|

Outro
e---------------------------------------------------------|
b----6-----------6-----------6-----------6-----------6----|
g----5-----------5-----------5-----------5-----------5----|
d----4-----------4-----------4-----------4-----------4----|
a----5-----------5-----------5-----------5-----------5----|
e---------------------------------------------------------|

h = hammer on
p = pull off
~ = tremolo
^ = half bend
/\ = full bend
rb(X)  = release bend
hb = hold bend
/ = slide up
\ = slide down

kenven_maiden@yahoo.com
Kenneth Cerda. Managua, Nicaragua
Comments