Alice In Chains - Would? Chords & Tabs

 

Would? Chords & Tabs

Alice In Chains Chords & Tabs

Version: 1 Type: Chords 1 rating
1 star 2 stars 3 stars 4 stars 5 stars
comments

Would? Chords

   
Tune all strings 1/2 step (1 fret) down.

Chords Used:                                                 Notation:
B5    G5    D5/A  D5    Ab5   G5type2 E5     D7#9       h=hammer on      
x     3     x     x     x     x       x      x          p=pull off        
x     3     3     x     x     x       x      6          b=bend note          
4     0     2     x     x     x       x      5          r=release bend         
4     0     0     12    6     5       2      4          t=trill (quick, repeated hammer/pull)         
2     x     0     12    6     5       2      5          /=slide up          
x     3     x     10    4     3       0      x          \=slide down           
                                                        ~=vibrato
                                                        ( )=signifies note previously played

INTRO
gtr. 1
|------------0-----------|---0---------|
|---------------2--------|---0---------|
|----2----2--------------|---0---------|
|--2----2----------------|-------------|
|------------------------|-------------|
|------------------------|---3---------|
                             (vol. swell)

PRE VERSE
gtr. 1
|----------------------------------------|-----------|-----------|
|----------------------------------------|-------5---|-----------|
|--4h6---4h6---4-4-----4h6---4h6---4-4---|-----4-----|-----------|
|--4-----4-----4-5-----4-----4-----4-5---|--/5-------|-------2---|
|----------------------------------------|-----------|-----2-----|
|----------------------------------------|-----------|--/3-------|
                                           1st end     2nd end

gtr. 2
|-------------------------------------------------------|
|-------------------------------------------------------|
|--11~~~~~~~~~~---9b------------------------------------|
|--------------------11~~~~--9------------7h9-----------|
|---------------------------------------------9~~~~~~~~~|
|-------------------------------------------------------|

VERSE
gtr.1
|----------------------------------------|-----------|---------|
|----------------------------------------|-----------|---------|
|----------------------------------------|-----------|---------|
|----------------------------------------|-------2---|---------|
|--2h4---2h4---2-2-----2h4---2h4---2-2---|-----2-----|-(2)-----|
|--2-----2-----2-3-----2-----2-----2-3---|--/3-------|-(3)-----|
                                           1st end     2nd end
[ Tab from: http://www.guitartabs.cc/tabs/a/alice_in_chains/would_crd.html ]
CHORUS
gtr.1
  B5  G5   |-----------|
           |-------5---|
           |-----4-----|
           |--/5-------|
           |-----------|
           |-----------|
          end

gtr.2                    *hold bend--------*
|--------------------------------------------------------------------------------|
|----------------------------------------------------------------------12-12-12--|
|------------------------------11--11--11---------------------------11----11-11--|
|--11b-r~~~~~~~--9-11--11b-11------11--11--(11)r-(11)~~~~~--9-11b----------------|
|--------------------------------------------------------------------------------|
|--------------------------------------------------------------------------------|
 "Into the flood again..."

                         *hold bend*
|-------------------------------------------------------------|
|--------------------------12---------------------------------|
|--------------------------11---------------------------------|
|--11b-r~~~~~~~--9-11--11b-----11--(11)r-(11)~~~~~~~~~--7h9---|
|-------------------------------------------------------------|
|-------------------------------------------------------------|
 "So I made a big mistake..."

SOLO
gtr.1
|---------------------------------------------------------------|
|---------------------------------------------------------------|
|---------------------------------------------------------------|
|---------------------------------------------------------------|
|---------------------------------------------------------------|
|--0h2-2-2-2p0-0-0--2-3--3--3--3-3--3--0--0-0-0-3-0-0-0--0--0-0-|
  (palm mute)

gtr.2
|---------------------------------------------------------|
|-------------------------10------------------------------|
|------------11~~~~~--9b----------------------------------|
|--11t12----------------------9-11-11-11~~~~~--9h11-9~~~~~|
|---------------------------------------------------------|
|---------------------------------------------------------|

|-------------------------------------------------|
|-------------7-----------------------------------|
|-------------------------------------------------|
|--7--(7)b-r----7---------------------------------|
|-----------------9~~~~~--7h9---------------------|
|-----------------------------9~~~~~--7h9-7~~~~~--|

OUTRO
gtr.1
  D5/A  Ab5  G5  E5 |  D7#9  
                       end
gtr.2
  D5\\\\Ab5  G5  E5 |  D7#9
 (slide down)          end

INTRO-PRE VERSE-VERSE-CHORUS-PRE VERSE-VERSE-CHORUS-SOLO-CHORUS-OUTRO
Comments