Alice In Chains - Whale And Wasp Chords & Tabs

 

Whale And Wasp Chords & Tabs

Alice In Chains Chords & Tabs

Version: 2 Type: Tab 0 ratings
1 star 2 stars 3 stars 4 stars 5 stars
comments

Whale And Wasp Tab

Alice in Chains - Jar of Flies

WHALE AND WASP

This version transcribed by Lee "Darren" Horn 

I worked this out a while ago now, it is not as exactly as on the CD 
but it sounds pretty close and this version is really easy to play - just move the G5 shape
up and down the neck. Enjoy

Tuning : Standard - down a half step


Sequence 1 ;

Eb|-6-----|-5-----|-4----|-3-------|-3-------|--6------|-8------|-11-|-3-------|-3-------|
Bb|---6---|---5---|---4--|---3-----|---3-----|----6----|---8----|----|---3-----|---3-----|
Gb|-----0-|-----0-|------|-----0---|-----0---|------0--|-----0--|----|-----0---|-----0---|
Db|-------|-------|------|-------0-|-------0-|---------|--------|----|-------0-|-------0-|
Ab|-------|-------|------|---------|---------|---------|--------|----|---------|---------|
Eb|-6-----|-5-----|-4----|-3-------|---------|--6------|-8------|-11-|-3-------|---------|
	(you can hold the G5 shape for all the above)

Repeat Sequence 1 x 3, then

Sequence 2 ;

Eb|-3-----|-----0-----|-------|-----0-----|-------0-|-------|-----------|-0h3p3-----|
Bb|---3---|-------3---|-------|-------3---|-----3---|-----3-|-------3---|-------3---|
Gb|-----0-|---------0-|-------|---------0-|---0-----|---0---|-----0---0-|---------0-|
Db|-------|-4---------|-2-0---|-----------|---------|-------|-0---------|-----------|
Ab|-------|-----------|-----3-|-2---------|-3-------|-2-----|-----------|-----------|
Eb|-------|-----------|-------|-----------|---------|-------|-----------|-----------|

[ Tab from: http://www.guitartabs.cc/tabs/a/alice_in_chains/whale_and_wasp_tab_ver_2.html ]
Eb|-0-----|-----0-----|-------|-----0-----|-------0-|-------|-----------|-0h3p3-----|
Bb|---3---|-------3---|-------|-------3---|-----3---|-----3-|-------3---|-------3---|
Gb|-------|---------0-|-------|---------0-|---0-----|---0---|-----0---0-|---------0-|
Db|-----2-|-4---------|-2-0---|-----------|---------|-------|-0---------|-----------|
Ab|-------|-----------|-----3-|-2---------|-3-------|-2-----|-----------|-----------|
Eb|-------|-----------|-------|-----------|---------|-------|-----------|-----------|

	(again, mostly G5. Pinky can get 4 in 2nd bar, hold the 3 on the 2nd string as an anchor)

Repeat Sequence 1, then

Sequence 1B ;

Eb|-6-----|-5-----|-4----|-3-------|-3-------|--6------|-8------|-11-|-3-------|
Bb|---6---|---5---|---4--|---3-----|---3-----|----6----|---8----|----|---------|
Gb|-----0-|-----0-|------|-----0---|-----0---|------0--|-----0--|----|---------|
Db|-------|-------|------|-------0-|-------0-|---------|--------|----|---------|
Ab|-------|-------|------|---------|---------|---------|--------|----|---------|
Eb|-6-----|-5-----|-4----|-3-------|---------|--6------|-8------|-11-|-3-------|

Sequence 3 ;

Eb|-------|-------|-----|---------|-3---3---|-------|-------|-----|---------|-3-------|
Bb|-----3-|-----3-|-----|-----3---|---3---3-|-----3-|-----3-|-----|-----3---|---3---3-|
Gb|---0---|---0---|---0-|---0---0-|---------|---0---|---0---|---0-|---0---0-|-----0---|
Db|-------|-------|-0---|---------|---------|-------|-------|-----|---------|---------|
Ab|-2-----|-3-----|-----|-3-------|---------|-3-----|-2-----|-0---|---------|---------|
Eb|-------|-------|-----|---------|---------|-------|-------|-----|-3-------|---------|

Repeat Sequence 3 x 3, then

Sequence 4 ;

Eb|---------|-------|-----|-------|-------3-|---------|-------|-----|-------|-------3-|
Bb|-------3-|-----3-|-----|-----3-|-----3---|-------3-|-----3-|-----|-----3-|-----3---|
Gb|-----0---|---0---|---0-|---0---|---0-----|-----0---|---0---|---0-|---0---|---0-----|
Db|---0-----|-------|-----|-------|---------|---0-----|-------|-----|-------|---------|
Ab|-2-------|-------|-2---|-3-----|---------|-2-------|-------|-2---|-3-----|-3-------|
Eb|---------|-3-----|-----|-------|-3-------|---------|-3-----|-----|-------|---------|
     (^ really hammer this note) Emphasize the bass run 

Repeat Sequence 4, then

Sequence 1, then

Sequence 1B

END

Comments