Alice In Chains - We Die Young Chords & Tabs

 

We Die Young Chords & Tabs

Alice In Chains Chords & Tabs

Version: 1 Type: Tab 0 ratings
1 star 2 stars 3 stars 4 stars 5 stars
comments

We Die Young Tab

   
AIC-We Die Young
Tabbed by Trevor


Drop D Tuning, Down 1/2 Step (E-Flat)


Intro (Riff A)
            ~~~~                                               ~~~~                       .5--\
|-------------------------|-------------------------|------------------------|---------------------------||
|-------------------------|-------------------------|------------------------|---------------------------||
|-------------------------|-------------------------|------------------------|--------------------------.||
|-------------------------|-------------------------|------------------------|--------------------------.||
|--2--0--0--6----0--3-----|----3--------3-----3--5--|-2--0--0--6----0--3-----|----3-----5-5b--(5)--3--0--||
|--2--0--0--6----0--3--0--|-0--3--0--0--3--0--3--5--|-2--0--0--6----0--3--0--|-0--3--0--5-5b--(5)--3--0--||
                       pm.......  pm... pm                                pm.......  pm


                               Riff B
|----------------------------||-----------------------------------|----------------------------|
|------6-----------6-----8---||--14-------6-----------6-------6---|---------6-------8\6--------|
|------5-----------5-----7---||--13-------5-----------5-------5---|---------5-------7\5--------|
|------3-----------3-----5---||--11-------3-----------3-------3---|---------3-------5\3--------|
|------3-----------3-----5---||--11-------3-----------3-------3---|---------3-------5\3--------|
|--0---3---0---0---3-----5---||-------0-------0---0-------0-------|-0---0-------0----------0---|
   pm      pm....                     pm      pm....      pm        pm....      pm         pm
         

                                                   .5--\
|----------------------------------|-----------------------------|----------------------------------|
|--14-------6-----------6-------6--|-----------------------------|--14-------6-----------6-------6--|
|--13-------5-----------5-------5--|-----------------------------|--13-------5-----------5-------5--|
|--11-------3-----------3-------3--|-----------------------------|--11-------3-----------3-------3--|
|--11-------3-----------3-------3--|---------3---5-5b--(5)--3----|--11-------3-----------3-------3--|
|-------0-------0---0-------0------|-0---0---3---5-5b--(5)--3--0-|-------0-------0---0-------0------|
        pm      pm....      pm       pm....                    pm        pm      pm....      pm



|-----------------------------|-----------------------------------|---------------------------------||
|-----------6-------8\6-------|--14-------6-----------6-------6---|---------6-------6---8---8-------||
|-----------5-------7\5-------|--13-------5-----------5-------5---|---------5-------5---7---7-------||
|-----------3-------5\3-------|--11-------3-----------3-------3---|---------3-------3---5---5-------||
|-----------3-------5\3-------|--11-------3-----------3-------3---|---------3-------3---5---5-------||
|---0---0-------0----------0--|-------0-------0---0-------0-------|-0---0-------0---------------0---||
       
Riff A (Chorus)
            ~~~~                                               ~~~~                       .5--\
|-------------------------|-------------------------|------------------------|--------------------------|
|-------------------------|-------------------------|------------------------|--------------------------|
|-------------------------|-------------------------|------------------------|--------------------------|
|-------------------------|-------------------------|------------------------|--------------------------|
|--2--0--0--6----0--3-----|----3--------3-----3--5--|-2--0--0--6----0--3-----|----3-----5-5b--(5)--3--0-|
|--2--0--0--6----0--3--0--|-0--3--0--0--3--0--3--5--|-2--0--0--6----0--3--0--|-0--3--0--5-5b--(5)--3--0-|
                       pm.......  pm... pm                                pm.......  pm


            ~~~~                                               ~~~~                       .5--\
|-------------------------|-------------------------|------------------------|--------------------------||
|-------------------------|-------------------------|------------------------|--------------------------||
|-------------------------|-------------------------|------------------------|--------------------------||
|-------------------------|-------------------------|------------------------|--------------------------||
|--2--0--0--6----0--3-----|----3--------3-----3--5--|-2--0--0--6----0--3-----|----3-----5-5b--(5)--3--0-||
|--2--0--0--6----0--3--0--|-0--3--0--0--3--0--3--5--|-2--0--0--6----0--3--0--|-0--3--0--5-5b--(5)--3--0-||
                       pm.......  pm... pm                                pm.......  pm

 

Bridge (Guitar 2)
                         ~~~~~~~~          .5--\                                   ~~~~~~~~~~~           .5--\
|----------------------------|----------------------------|----------------------------|-------------------------------|
|--5/7----5-7-5-7-5-7-5--5---|----------------------------|----------------------------|-------------------------------|
|----------------------------|----------------------------|----------------------------|-------------------------------|
|----------------------------|----------------------------|----------------------------|-------------------------------|
|----------------------------|---0---3---5-5b--(5)--3--0--|-3/5-----3-5-3-5-3-5-3--3---|--(3)--0---3---5-5b--(5)--3--0-|
|----------------------------|---0---3---5-5b--(5)--3--0--|----------------------------|-------0---3---5-5b--(5)--3--0-|

[ Tab from: http://www.guitartabs.cc/tabs/a/alice_in_chains/we_die_young_tab.html ]
Bridge (Guitar 1)
                         ~~~~~~~~          .5--\                    ~~~~~~~~~~~~~~~~~~~~~~~~~~           .5--\
|----------------------------|----------------------------|----------------------------|-------------------------------|
|----------------------------|----------------------------|-3--------------------------|-------------------------------|
|----------------------------|----------------------------|-5-------5------------------|--(5)--------------------------|
|----------------------------|----------------------------|----------------------------|-------------------------------|
|--3/5----3-5-3-5-3-5-3--3---|---0---3---5-5b--(5)--3--0--|----------------------------|-------0---3---5-5b--(5)--3--0-|
|----------------------------|---0---3---5-5b--(5)--3--0--|----------------------------|-------0---3---5-5b--(5)--3--0-|

Guitar 2 cont'

|----------------------------|-------------------------------------||
|-6----------------------10--|-------------------------------------||
|-5---------10---12------10--|----------------------------10-------||
|-3--------------------------|--------10---12---12---12------------||
|-3--------------------------|----12---------------------------12--||
|-3--------------------------|-------------------------------------||

Guitar 1 cont'

|----------------------------|-------------------------------------||
|-6----------------------8---|-------------------------------------||
|-5----------------------7---|-------------------------------------||
|-3----------------------5---|-------------------------------------||
|-3----------------------5---|-------------------------------------||
|-3----------------------5---|---------------------------------0---||

Guitars 1 & 2 play riff A 2 times during guitar solo

GUITAR SOLO
    *           1.5~~~~~~~~~~~~~~~~~~1.0~~~    1.0         ~~~~~~~~~~                  .5            1.         1.
|---5-----------17b-(17)-|-----------(17)------------|-------------------------------|--------------------10---------|
|---/--------------------|---------------------13b---|-10--------------------10--12--|-12b--12---10----------10-13b--|
|---/--------------------|---------------------------|----10-----------------10--12--|-12b--12---10--12b-------------|
|---/--------------------|---------------------------|-----------------10/12---------|-------------------------------|
|------------------------|---------------------------|-------------------------------|-------------------------------|
|------------------------|---------------------------|-------------------------------|-------------------------------|
    * Tremolo 
   picking upto 17

                        1. hold............... 1. .... 1. ...\
|------------------------------------------------------------------|--------------------------------------|
|--12-13-12-10----------------------------13-----------------------|--------------------------------------|
|--------------13-12-10-12b--------------------12b-----12b---r(12)-|-10------------------------7---7b-----|
|------------------------------------------------------------------|-----12--------------12\--------------|
|------------------------------------------------------------------|--------------------------------------|
|------------------------------------------------------------------|--------------------------------------|

           ~~~~~          p.h.  .5
|-------------------------------------|--------------------------||
|-------------------------------------|--------------------------||
|--(7)--7--5--------------------------|--------------------------||
|---------------7--5--3---5---5-5b----|-5--3\--3-----------------||
|-------------------------------------|------5----5--3--5--5--5--||
|-------------------------------------|--------------------------||


(Riff A)
            ~~~~                                               ~~~~                       .5--\
|-------------------------|-------------------------|------------------------|--------------------------|
|-------------------------|-------------------------|------------------------|--------------------------|
|-------------------------|-------------------------|------------------------|--------------------------|
|-------------------------|-------------------------|------------------------|--------------------------|
|--2--0--0--6----0--3-----|----3--------3-----3--5--|-2--0--0--6----0--3-----|----3-----5-5b--(5)--3--0-|
|--2--0--0--6----0--3--0--|-0--3--0--0--3--0--3--5--|-2--0--0--6----0--3--0--|-0--3--0--5-5b--(5)--3--0-|
                       pm.......  pm... pm                                pm.......  pm

            ~~~~                                               ~~~~                       .5--\
|-------------------------|-------------------------|------------------------|--------------------------|
|-------------------------|-------------------------|------------------------|--------------------------|
|-------------------------|-------------------------|------------------------|--------------------------|
|-------------------------|-------------------------|------------------------|--------------------------|
|--2--0--0--6----0--3-----|----3--------3-----3--5--|-2--0--0--6----0--3-----|----3-----5-5b--(5)--3--0-|
|--2--0--0--6----0--3--0--|-0--3--0--0--3--0--3--5--|-2--0--0--6----0--3--0--|-0--3--0--5-5b--(5)--3--0-|
                       pm.......  pm... pm                                pm.......  pm

Back to Riff B above


(Riff A) Coda
            ~~~~                                               ~~~~                       .5--\
|-------------------------|-------------------------|------------------------|--------------------------|
|-------------------------|-------------------------|------------------------|--------------------------|
|-------------------------|-------------------------|------------------------|--------------------------|
|-------------------------|-------------------------|------------------------|--------------------------|
|--2--0--0--6----0--3-----|----3--------3-----3--5--|-2--0--0--6----0--3-----|----3-----5-5b--(5)--3--0-|
|--2--0--0--6----0--3--0--|-0--3--0--0--3--0--3--5--|-2--0--0--6----0--3--0--|-0--3--0--5-5b--(5)--3--0-|
                       pm.......  pm... pm                                pm.......  pm

            ~~~~                                               ~~~~                
|-------------------------|-------------------------|----------------------|-||
|-------------------------|-------------------------|------------------6---|-||
|-------------------------|-------------------------|------------------5---|-||
|-------------------------|-------------------------|------------------3---|-||
|--2--0--0--6----0--3-----|----3--------3-----3--5--|-2--0--0--6----0--3---|-||
|--2--0--0--6----0--3--0--|-0--3--0--0--3--0--3--5--|-2--0--0--6----0--3---|-||
                       pm.......  pm... pm                               


Comments