Alice In Chains - Them Bones Chords & Tabs

 

Them Bones Chords & Tabs

Alice In Chains Chords & Tabs

Version: 6 Type: Tab 0 ratings
1 star 2 stars 3 stars 4 stars 5 stars
comments

Them Bones Tab

   

Tabbed by: Ryanski
Email: the_dwarves_will_destroy_you@Hotmail.com

Tuning:Drop-D

Intro
           PM_______________________________________________________________
|-----------------------------------------------------------------------------|
|-----------------------------------------------------------------------------|
|---7----------------------------------7--------------------------------------|
|---7--------0-0-1-1-1-1-2-2-2-2-0-0-0-7--------0-0-1-1-1-1-2-2-2-2-0-0-0-----|
|---5--------0-0-1-1-1-1-2-2-2-2-0-0-0-5--------0-0-1-1-1-1-2-2-2-2-0-0-0-----|
|------------0-0-1-1-1-1-2-2-2-2-0-0-0----------0-0-1-1-1-1-2-2-2-2-0-0-0-----|
[ Tab from: http://www.guitartabs.cc/tabs/a/alice_in_chains/them_bones_tab_ver_6.html ]
Verse
                                                     reptx8
|-----------------------------------------------------------------------------|
|-----------------------------------------------------------------------------|
|---7-------------------------------------------------------------------------|
|---7--------0--------1--------2--------3-------------------------------------|
|---5--------0--------1--------2--------3-------------------------------------|
|------------0--------1--------2--------3-------------------------------------|

Chorus

|-----------------------------------------------------------------------------|
|-----------------------------------------------------------------------------|
|---3----3----3----3----2----2----2----2----5----5----5----5----4----4--------|
|---3----3----3----3----2----2----2----2----5----5----5----5----4----4--------|
|---1----1----1----1----0----0----0----0----3----3----3----3----2----2--------|
|-----------------------------------------------------------------------------|
                  reptx2
|-----------------------------------------------------------------------------|
|-----------------------------------------------------------------------------|
|---4----4--------------------------------------------------------------------|
|---4----4--------------------------------------------------------------------|
|---2----2--------------------------------------------------------------------|
|-----------------------------------------------------------------------------|
Comments