Alice In Chains - Social Parasite Chords & Tabs

 

Social Parasite Chords & Tabs

Alice In Chains Chords & Tabs

Version: 1 Type: Tab 1 rating
1 star 2 stars 3 stars 4 stars 5 stars
comments

Social Parasite Tab

   
ALICE IN CHAINS - SOCIAL PARASITE

This is one of my favorite Alice in Chains Songs. The Problem is It is Hard to find because it is unreleased. 
 
Enjoy!

Key
= after note = vibrato
^ after note = heavy vibrato 
\ = slide down
/ = slide up
+ = tap
h = hammer
p = pull
n = natural harmonic
s = pinching harmonic (squeal)
* = tremolo pick
t = trill
b = bend
|-3-| = triplet

n number above the tab = play the first part then the first finishing part
			 play the first part a second time and then play the second finishing part
			 etc.

Riff 1

Eb -----------------------------------------------------------------
Bb -0-0-0-0-0-0-0-0-0-0-0-0-0-0-0-0-0-0-0-0-0-0-0-0-0-0-0-0-0-0-0-0-
Gb -4-4-2-0-2-0-0-4-4-4-2-0-2-0-0-0-4-4-2-0-2-0-0-4-4-4-3-2-0-2-0-0-
Db -----------------------------------------------------------------
Ab -----------------------------------------------------------------
Eb -----------------------------------------------------------------

Riff 1A

Eb ---------3----------------------------
Bb ---------3----------------------------
Gb ---------0---------2-------5----7-----
Db -2-------0---------2-------5----7-----
Ab -2-----------------0-------3----5-----
Eb -0-------3----------------------------

Riff 1B

Eb ---------3------------------------------
Bb ---------3------------------------------
Gb ---------0---------2-------5----7-------
Db -2-------0---------2-------5----7-------
Ab -2-----------------0-------3----5-------
Eb -0-------3-------------------------0-3==

Fill 1

Eb ------------------------------------------
Bb ------------------------------------------
Gb --------------------------9-9-7-7---------
Db -2--------------------------------7-7-5-5-
Ab -2----------------------------------------
Eb -0----------------------------------------

Riff 2

E -----------------------------------------------------------------------------------------------------------------------
B -----------------------------------------------------------------------------------------------------------------------
G -------------------------9-9----14---12-12-------------------------------------------9-9----14---12-12-----------------
D -5----5--7----8-7-5-2----9-9----14---14-14---7-8-5--2--------5----5--7----8-7-5-2----9-9----14---14-14---7-8-5--2------
A -2----5--7----8-7-5-2----7-7-----------------7-8-5--2--------2----5--7----8-7-5-2----7-7-----------------7-8-5--2------
E -0--0-3--5--3-6-5-3-0--0------0----0-------0-----------0-3-0-0--0-3--5--3-6-5-3-0--0------0----0-------0-----------0-3-

Riff 2A
[ Tab from: http://www.guitartabs.cc/tabs/a/alice_in_chains/social_parasite_tab.html ]
Eb -----------------------------------------------------------------------------------------
Bb ----------------------14--15-------------------------------------------------------------
Gb -2--------------------14--14--14-b15-14-12---------2----------------5--------7-----------
Db -2----------------2------------------------14------2----------------5--------7-----7--5--
Ab -0----------------2--------------------------------0----------------3--------5-----7--5--
Eb ------------------0----------------------------0-3---------------------------------5--3--

Riff 3

Eb -----------------------------------------------------------------------------------
Bb -----------------------------------------------------------------------------------
Gb -2-------------------------------------------2----------------5--------7-----------
Db -2-----------------2----5--7----8-7-5-2------2----------------5--------7-----7--5--
Ab -0-----------------2----5--7----8-7-5-2------0----------------3--------5-----7--5--
Eb -------------------0--0-3--5--0-6-5-3-0--0-3---------------------------------5--3--

Riff 3A

Eb --------------------------------------------------------------------
Bb -----14--15---------------------------------------------------------
Gb -----14--14--14-b15-14-12-------9-9----14---12-12-------------------
Db -2------------------------14----9-9----14---14-14---7-8-5--2--------
Ab -2------------------------------7-7-----------------7-8-5--2--------
Eb -0----------------------------0------0----0-------0-----------0-3-0-

Eb ------------------------------------------------------------------
Bb -----14--15-------------------------------------------------------
Gb -----14--14--14-b15-14-12-------9-9----14---12-12-----------------
Db -2------------------------14----9-9----14---14-14---7-8-5--2------
Ab -2------------------------------7-7-----------------7-8-5--2------
Eb -0----------------------------0------0----0-------0-----------0-3-

Fill 2

Eb --------------------------
Bb --------------------------
Gb --------------------------
Db -2------------------------
Ab -2------------------------
Eb -0------------------------

Riff 4

Eb -----------------------------------------------------
Bb -----------------------------------------------------
Gb -2-------------------------2-----7-------------------
Db -2-----2-------------------2-----7-------------------
Ab -0-----2-------------------0-----5-------------------
Eb -------0---------------------------------------------

Outro

Eb ----------------------------------------
Bb ------------15--------------------------
Gb ----------------12-14-b15-14-12-7----b9-
Db -2--------------------------------------
Ab -2--------------------------------------
Eb -0--------------------------------------

Order

Riff 1 x 1
Riff 1/1A x 4
Fill 1 x 1
Riff 2/2A x 1
Riff 3/3A x 1
Riff 1/1A x 2
Fill 1 x 1
Riff 2/2A x 1
Riff 3/3A x 1
Riff 1/1A x 4
Fill 2 x 1
Riff 4 x 2
Solo over Riff 4 x 4
Riff 2/2A x 1
Riff 3/3A x 1
Riff 1/1A x 4
Outro x 1

Tabbed by AssMonkey6309
Comments