Alice In Chains - Sea Of Sorrow Chords & Tabs

 

Sea Of Sorrow Chords & Tabs

Alice In Chains Chords & Tabs

Version: 1 Type: Tab 0 ratings
1 star 2 stars 3 stars 4 stars 5 stars
comments

Sea Of Sorrow Tab

   
Sea Of Sorrow by Alice In Chains

From: Garrett

Tuning: Tune down 1/2 step

In the first part of song there's a great guitar intro Where Jerry Just Slides
Up and Down The 3rd String Just Slide up and Down 
The verse part is:

   G5
||-3-----------------------------------------------------------------
||-3-----------------------------------------------------------------
||-0-----------------------------------------------------------------
||-0-----------------------------------------------------------------
||-2-----------------------------------------------------------------
||-3-----------------------------------------------------------------
" Mind of destructive taste,I choose to stroll among the waste still was..
 
 F                      C5      (Bb) G5        (F)  G5
-1-----------------------------------3--------------3----
-1----------------------5------------3--------------3----
-2----------------------5------------0--------------0----
-3----------------------5---------0--0-----------3/-0----
-3----------------------3---------5/-2-----------3/-2----
-1--------------------------------6/-3-----------1/-3----
 ...your heart lost in the dark,call off the chase......"

Now repeat this part for the 2nd verse with the words
"...walls of thought strong and high....".

After this there's the Pre-Chorus:

F          C5     G5  
You opened fire....and your mark was true
F          C5     G5 
you opened fire....aim my smiling skull at you
F          C5       A(play it like in figure.1)
you opened fire........

Figure.1:

||-------------------------
||-------------------------
||-------------------------(X2)
||-7-----------------------
||-7-7--9-7-9-7-7----------
||-5-5--5-5-5-5-5----------

The chorus is played with these chords:

G A    E
I live tomorrow.....
G   A       E
You are not follow....
G  A      E
As you wallow.......
G    A      E
In a sea of sorrow......

Alice In Chains
Sea Of Sorrow Solo

BOB BURKE chefaid3@cox.net


[ Tab from: http://www.guitartabs.cc/tabs/a/alice_in_chains/sea_of_sorrow_tab.html ]
With wah pedal     
full
eb-------------------------------------------------------------------
Bb-------12-15p12------12-15p12------12-15p12------12-15p12------12--
Gb---14b-----------14b-----------14b-----------14b-----------14b-----
Db-------------------------------------------------------------------
Ab-------------------------------------------------------------------
Eb-------------------------------------------------------------------

1/4    full      full                      1/2
Eb----------------------------------------------------------------------------                      
Bb-----12----12-15b--(15)--(15)--15b----(15)p12-------------------------------
Gb---14--14b-------------------------------------12-14-14-14-14-12-14b--(14)--
Db----------------------------------------------------------------------------
Ab----------------------------------------------------------------------------
Eb----------------------------------------------------------------------------

/\/\/\/\/\/\//\/\/            /\/\/\/\/\     legato
Eb-------------------------------------------------------------------
Bb---12--12-----------------------------------0---(5-0-3-5-3-5-3)----
Gb---12--12--------------------------------------3-2-0-2-0-----------
Db------------14--14p12--14--(14)--------(14)/-------------0--2-(2)--
Ab-------------------------------------------------------------------
Eb-------------------------------------------------------------------

Full							        full
Eb-------------------------0-----------------------------------------
Bb---5b-(5)-(5)-(5)/(10)-0-------------------------------------------
Gb----------------- 12h14p12-12h14p12-12h14p12----12h14p12----12-----
Db---------------------------------------------14----------14----12b-
Ab-------------------------------------------------------------------
Eb-------------------------------------------------------------------

/\/\/\/\/\/\  
Eb----------------------------------------------------------
Bb-----------------------------------0-0-16-0-18-0-12--0-12-
Gb---------------------------------------------------------- At This Part There is a Figure
Db---12h14-14----------(14)/--------------------------------
Ab----------------------------------------------------------
Eb----------------------------------------------------------

End of solo  1/2
Eb-----------------------------------
Bb-----------------------------------
Gb-----------------------------------
Db-----------5-7b-------7---5--------
Ab-------5-7-----------------7-------
Eb---5/7---------------------0-------
Comments