Alice In Chains - Rooster Chords & Tabs

 

Rooster Chords & Tabs

Alice In Chains Chords & Tabs

Version: 6 Type: Bass Tab

Rooster Bass Tab

   
Artist: Alice in Chains
Song: Rooster
Album: Dirt (1992)
Bassist: Mike Starr
Tuning: Eb-Ab-Db-Gb
Notes:


Intro:
Gb|-----------------------------------------------------------|
Db|---------------------7h9--7--------------------------------|
Ab|--7-9~---9~-----0~-----------7-9~---9~----0~---0---0--0-0--|
Eb|-----------------------------------------------------------| (x2)

Gb|--------------------------------------------------------------|
Db|---------------------7h9--7-----------------------------------|
Ab|--7-9~---9~-----0~-----------7-9~---------0~---0--0--0-0-7-0--|
Eb|--------------------------------------------------------------|

Gb|-----------------------------------------------------------|
Db|---------------------7h9--7--------------------------------|
Ab|--7-9~---9~-----0~-----------7-9~---9~----0~---0---0--0-0--|
Eb|-----------------------------------------------------------|


Verse 1:
Gb|------------------------------------------------------------|
Db|------------------------------------4~----------------------|
Ab|--7-9~---9~-----0~--4--3--2---------------0~---0---0--0-----|
Eb|-----------------------------5-2-------------------------0--|

Gb|--------------------------------------------------------------|
Db|----4~----------------------------4~--------------------------|
Ab|---------------0~-------------------------0~------0---0--0-0--|
Eb|--2--------------------------0-2------------------------------|

Gb|-------------------------------------------------------------|
Db|-----------------------------------4~------------------------|
Ab|--7-9~----------0~--4--3--2----------------0~---0---0--------|
Eb|-----------------------------5-2------------------------0-0--|

Gb|----------------------------------------------|
Db|----4~----------------------------4~----------|
Ab|---------------0~-------------------------0~--|
Eb|--2------------------------0-0-2--------------|


Pre-Chorus:
Gb|------------------------------------------------|
Db|--------------------------7--7--7--7--7--7--7~--|
Ab|--------------6--6--9--9------------------------|
Eb|--7--7--9--9------------------------------------|

Gb|----------------------------------------------|
Db|--------4~---------------------4~------4------|
Ab|----------------------------------------------|
Eb|--0--2------------0--2--0--2-2-----2-2---2-2--|

Gb|---------------------------------------------------|
Db|--------------------------7--7--7--7--7--7--7--7\--|
Ab|--------------6--6--9--9---------------------------|
Eb|--7--7--9--9---------------------------------------|


Chorus:
Gb|--------------------------------------------------------------------------|
Db|-----------4~-----------------------4~------4--------------7-7-----7------|
Ab|------------------0~--4--3--2---------------------0~---0-0-----0-0---0-0--|
Eb|--2---2-2----------------------5-2------2-2---2-2-------------------------| (x5)

Gb|------------------------------------------------|
Db|--------------------------7--7--7--7--7--7--7~--|
Ab|--------------6--6--9--9------------------------|
Eb|--7--7--9--9------------------------------------|
[ Tab from: http://www.guitartabs.cc/tabs/a/alice_in_chains/rooster_btab_ver_6.html ]
Gb|----------------------------------------------|
Db|--------4~---------------------4~------4------|
Ab|----------------------------------------------|
Eb|--0--2------------0--2--0--2-2-----2-2---2-2--|

Gb|---------------------------------------------------|
Db|--------------------------7--7--7--7--7--7--7--7\--|
Ab|--------------6--6--9--9---------------------------|
Eb|--7--7--9--9---------------------------------------|

Gb|------------------------------------------------------------------------------|
Db|-----------4~-----------------------4~------4--------------7-7-----7-7-7--7\--|
Ab|------------------0~--4--3--2---------------------0~---0-0-----0-0------------|
Eb|--0---0-2----------------------5-2------2-2---2-2-----------------------------|

Gb|------------------------------------------------------|
Db|-----------4--4-4-------------------4~------4---------|
Ab|------------------0~--4--3--2---------------------0~--|
Eb|--2---2-2----------------------5-2------2-2---2-2-----|


Verse 2:
Gb|-----------------------------------------------------------|
Db|-----------------------------------4~----------------------|
Ab|--7-9~---9~----0~--4--3--2---------------0~---0---0--0--0--|
Eb|----------------------------5-2----------------------------|

Gb|--------------------------------------------------------------|
Db|----4~----------------------------4~--------------------------|
Ab|---------------0~-------------------------0~------0---0--0-0--|
Eb|--2----------------------------2------------------------------|

Gb|------------------------------------------------------------|
Db|----------------------------------4~------------------------|
Ab|--7-9~---------0~--4--3--2----------------0~---0---0---0----|
Eb|----------------------------5-2--------------------------0--|

Gb|----------------------------------|
Db|----4~--------------7------7------|
Ab|---------------0~-----0-0----0-0--|
Eb|--2-------------------------------|


Pre-Chorus:
Gb|--------------------------------------------------|
Db|--------------------------7--7--7--7--7--7--7--7--|
Ab|--------------6--6--9--9--------------------------|
Eb|--7--7--9--9--------------------------------------|

Gb|----------------------------------------------|
Db|--------4~---------------------4~------4------|
Ab|----------------------------------------------|
Eb|--0--2-----2-2----0--2--0--2-2-----2-2---2-2--|

Gb|---------------------------------------------------|
Db|--------------------------7--7--7--7--7--7--7--7\--|
Ab|--------------6--6--9--9---------------------------|
Eb|--7--7--9--9---------------------------------------|


Chorus:
Gb|--------------------------------------------------------------------------|
Db|-----------4~-----------------------4~------4--------------7-7-----7------|
Ab|------------------0~--4--3--2---------------------0~---0-0-----0-0---0-0--|
Eb|--2---2-2----------------------5-2------2-2---2-2-------------------------| (x2)


Outro:
Gb|-----------------------------------------------------------|
Db|---------------------7h9--7--------------------------------|
Ab|--7-9~---9~-----0~-----------7-9~---9~----0~---0---0--0-0--|
Eb|-----------------------------------------------------------|

Gb|-------------------------------------------|
Db|---------------------7-9--7----------------|
Ab|--7-9~---9~-----0~-----------9~---9--9\0~--|
Eb|-------------------------------------------|