Alice In Chains - Rooster Chords & Tabs

 

Rooster Chords & Tabs

Alice In Chains Chords & Tabs

Version: 5 Type: Bass Tab 0 ratings
1 star 2 stars 3 stars 4 stars 5 stars
comments

Rooster Bass Tab

ROOSTER - Alice in Chains for 5  strings


g|---------------|-----1-------|--------------|----------------|
d|---1--1--------|--------4----|-1---1--------|----------------|
a|-4-------------|-----------4-|--------------|----------------|
e|---------------|-2-----------|--------------|-2---2--2-2-2-2-|
b|---------------|-------------|--------------|----------------|

g|---------------|-----1-------|--------------|----------------|
d|---1--1--------|--------4----|-1---1----1---|----------------|
a|-4-------------|-----------4-|--------------|----------------|
e|---------------|-2-----------|--------------|-2---2--2-2-2-2-|
b|---------------|-------------|--------------|----------------|


g|---------------|-----1-------|--------------|----------------|
d|---1--1--------|--------4----|-1------------|----------------|
a|-4-------------|-----------4-|--------------|----------------|
e|---------------|-2-----------|--------------|-2------2-2-2-2-|
b|---------------|-------------|--------------|----------------|


g|---------------|-----1-------|--------------|----------------|
d|---1--1--------|--------4----|-1---1----1---|----------------|
a|-4-------------|-----------4-|--------------|----------------|
e|---------------|-2-----------|--------------|-2---2--2-2-2-2-|
b|---------------|-------------|--------------|----------------|


g|---------------|-------------|---------------|-------------|
d|---1--1--------|-------------|------1--------|-------------|
a|-4-------------|-----1--0----|---------------|-------------|
e|---------------|-2---------4-|-2-------------|-2---2---2---|
b|---------------|-------------|---4-----------|-----------2-|

g|--------------|--------------|--------------|-----------------|
d|-----1--------|--------------|--------------|-----------------|
a|--------------|--------------|-----1--------|-----------------|
e|--------------|-2------------|--------------|-2----------2-2--|
b|-4------------|------------2-|-4------------|-----------------|

g|---------------|-------------|---------------|---------------|
d|---1--1--------|-------------|------1--------|---------------|
a|-4-------------|-----1--0----|---------------|---------------|
e|---------------|-2---------4-|-2-------------|-2---2-2-2-2---|
b|---------------|-------------|---4-----------|-------------2-|

g|--------------|--------------|--------------|------|
d|-----1--------|--------------|-----1--------|------|
a|--------------|--------------|--------------|------|
e|--------------|-2------------|--------------|-2----|
b|-4------------|------------2-|--4-----------|------|

g|-------------|-----------|----------------|------------------------|
d|-------------|-4------4--|-------1--------|-----------1------------|
a|-----------6-|-----------|----------------|------------------------|
e|--4--6--7----|-----------|----------------|------------------------|
b|-------------|-----------|-2-4-4----------|-2-4-2-4-2---4-4-4-4-4--|

g|-------------|-----------|        
d|-------------|-4------4--|        
a|----------6--|-----------|        
e|-4--6--7-----|-----------|        
b|-------------|-----------|        


g|---------------|-------------|-----------------|-----------------|
d|-------1--1----|-------------|------1----1-1-1-|-----4-4-4-4-4-4-|
a|---------------|-----1--0----|-----------------|-----------------|
e|---------------|-2---------4-|-2---------------|-2---------------|
b|-2-4-4------4--|-------------|---4-----4-------|-----------------|




g|---------------|-------------|-----------------|-----------------|
d|-------1--1----|-------------|------1----1-1-1-|-----4-4-4-4-4-4-|
a|---------------|-----1--0----|-----------------|-----------------|
e|---------------|-2---------4-|-2---------------|-2---------------|
b|-2-4-4------4--|-------------|---4-----4-------|-----------------|

g|---------------|-------------|-----------------|-----------------|
d|---1--1--1-----|-------------|------1----1-1-1-|-----------------|
a|-4-------------|-----1--1----|-----------------|-----------------|
e|--------------2|-2---------4-|-2---------------|-2---2-2-2-2-2---|
b|------------4--|-------------|---4-----4-------|-----------------|

g|---------------|-------------|-----------------|-----------------|
d|---1--1--1-----|-------------|------1----1-1-1-|-----------------|
a|-4-------------|-----1--1----|-----------------|-----------------|
e|--------------2|-2---------4-|-2---------------|-2---2-2-2-2-2---|
b|------------4--|-------------|---4-----4-------|-----------------|
[ Tab from: http://www.guitartabs.cc/tabs/a/alice_in_chains/rooster_btab_ver_5.html ]
g|---------------|-------------|-----------------|-----------------|
d|---1--1--1-----|-------------|------1----1-1-1-|-----------------|
a|-4-------------|-----1--1----|-----------------|-----------------|
e|--------------2|-2---------4-|-2---------------|-2---2-2-2-2-2---|
b|------------4--|-------------|---4-----4-------|-----------------|

g|-----------------|-------------------|-----------------|------------------------|
d|-----------------|-4-4-4-4-4-4-4-4-4-|-------1---1-1-1-|-----------1------------|
a|-------------6-6-|-------------------|-----------------|------------------------|
e|-4-4-6-6-7-7-----|-------------------|-----------------|------------------------|
b|-----------------|-------------------|-2-4-4-----------|-2-4-2-4-2---4-4-4-4-4--|

g|-----------------|-------------------|
d|-----------------|-4-4-4-4-4-4-4-4-4-|
a|-------------6-6-|-------------------|
e|-4-4-6-6-7-7-----|-------------------|
b|-----------------|-------------------|

g|---------------|-------------|-----------------|-----------------|
d|-------1--1----|-------------|------1----1-1-1-|-------4-4-4-4---|
a|---------------|-----1--0----|-----------------|-----------------|
e|---------------|-2---------4-|-2---------------|-2-2-2-----------|
b|-2-4-4------4--|-------------|---4-----4-------|-----------------|

g|---------------|-------------|-----------------|-----------------|
d|-------1--1----|-------------|------1----1-1-1-|-----------------|
a|---------------|-----1--0----|-----------------|-----------------|
e|---------------|-2---------4-|-2---------------|-2---------------|
b|-2-4-4------4--|-------------|---4-----4-------|-----------------|

g|---------------|-------------|---------------|----------------|
d|---1--1---1----|-------------|------1--------|----------------|
a|-4-------------|-----1--0----|---------------|----------------|
e|---------------|-2---------4-|-2-------------|-2---2-2-2-2----|
b|---------------|-------------|---4-----------|--------------2-|

g|---------------|----------------|---------------|-------------|
d|------1--------|----------------|------1--------|-------------|
a|---------------|----------------|---------------|-------------|
e|---------------|-2---2-2-2-2----|---------------|-2---2-2-2---|
b|-4-------------|--------------2-|-4-------------|-------------|

g|---------------|----------------|---------------|----------------|
d|---1--1---1----|----------------|------1--------|----------------|
a|-4-------------|-------1--0-----|---------------|----------------|
e|---------------|2-2-2---------4-|-2-------------|-2---2-2-2-2----|
b|---------------|----------------|---4-----------|--------------2-|

g|----------------|---------------|---------------|----------------|
d|------1---------|---------------|-----1---------|----------------|
a|----------------|---------------|---------------|----------------|
e|----------------|-2--2-2-2-2----|---------------|-2---2-2-2-2----|
b|-4--------------|-------------2-|-4-------------|--------------2-|


g|-----------------|-------------------|-----------------|----------------------|
d|-----------------|-4-4-4-4-4-4-4-4-4-|-------1---1-1-1-|-----------1----------|
a|-------------6-6-|-------------------|-----------------|----------------------|
e|-4-4-6-6-7-7-----|-------------------|-----------------|----------------------|
b|-----------------|-------------------|-2-4-4-----------|-2-4-2-4-2---4-4-4-4--|

g|-----------------|-------------------|---------------|--------------|
d|-----------------|-4-4-4-4-4-4-4-4-4-|-------1--1----|--------------|
a|-------------6-6-|-------------------|---------------|-----1--0-----|
e|-4-4-6-6-7-7-----|-------------------|---------------|-2---------4--|
b|-----------------|-------------------|-2-4-4------4--|--------------|

g|-----------------|---------------|---------------|--------------|
d|------1----1-1-1-|-----4-4-4-4---|-------1--1----|--------------|
a|-----------------|---------------|---------------|-----1--0-----|
e|-2---------------|-2-------------|---------------|-2---------4--|
b|---4-----4-------|-------------2-|-2-4-4------4--|--------------|

g|-----------------|--------------|--------------|-----1--------|
d|------1----1-1-1-|--------------|---1-1-1---1--|--------4-----|
a|-----------------|--------------|-4------------|-----------4--|
e|-2---------------|-2---2--------|--------------|-2------------|
b|---4-----4-------|--------------|--------------|--------------|

g|---------------|---------------|--------------|--------------|
d|-1--1-1--------|---------------|---1-1-1---1--|-----4-6--4---|
a|---------------|---------------|-4------------|--------------|
e|---------------|-2---2---2-2-2-|--------------|-2------------|
b|---------------|---------------|--------------|--------------|

g|---------------|------*|
d|---------------|------*|
a|-6--------6-6--|------*|
e|---------------|-2----*|
b|---------------|------*|
Comments