Alice In Chains - Rooster Chords & Tabs

 

Rooster Chords & Tabs

Alice In Chains Chords & Tabs

Version: 4 Type: Bass Tab 0 ratings
1 star 2 stars 3 stars 4 stars 5 stars
comments

Rooster Bass Tab

Rooster (bassline)

|---------------|-----4--2----|--------------|----------------|
|-2-4--4----(4)-|-----------2-|-4---4----(4)-|----------------|
|---------------|-------------|--------------|----------------|
|---------------|-5-----------|--------------|-5---5--5-5-5-5-|

|---------------|-----4--2----|------------|----------------|  (3x)
|-2-4--4----(4)-|-----------2-|-4---4---4--|----------------|
|---------------|-------------|------------|-0---0---0-0-0--|
|---------------|-5-----------|------------|----------------|

|---------------|-------------|---------------|-------------|
|-2-4--4----(4)-|-------------|------4----(4)-|-------------|
|---------------|-----4--3--2-|-0-------------|-0---0---0---|
|---------------|-5-----------|---2-----------|-----------0-|

|--------------|--------------|--------------|-----------------|
|-----4----(4)-|--------------|-----4----(4)-|-----------------|
|--------------|-0------(0)---|--------------|-0------(0)-0-0--|
|-2------------|------------0-|-2------------|-----------------|

|---------------|-------------|---------------|---------------|
|-2-4--4----(4)-|-------------|------4----(4)-|---------------|
|---------------|-----4--3--2-|-0-------------|-0---0-0-0-0---|
|---------------|-5-----------|---2-----------|-------------0-|

|--------------|--------------|--------------|------|
|-----4----(4)-|--------------|-----4----(4)-|------|
|--------------|-0------(0)---|--------------|-0----|
|-2------------|------------0-|-2------------|------|

|-------------|-2------2--|----------------|------------------------|
|-------0--4--|-----------|-------4----(4)-|-----------4------------|
|-2--4--------|-----------|----------------|------------------------|
|-------------|-----------|-0-2-2----------|-0-2-0-2-0---2-2-2-2-2--|

|-------------|-2------2--|---------------|-------------|
|-------0--4--|-----------|-------4--4----|-------------|
|-2--4--------|-----------|---------------|-0---4--3--2-|
|-------------|-----------|-0-2-2------2--|-------------|

|-----------------|-----2-2-2-2-2-2-|---------------|-------------|
|------4----4-4-4-|-----------------|-------4--4----|-------------|
|-0---------------|-0---------------|---------------|-0---4--3--2-|
|---2-----2-------|-----------------|-0-2-2------2--|-------------|

|-----------------|-----2-2-2-2-2-2-|---------------|-------------|
|------4----4-4-4-|-----------------|-2-4--4--4-----|-------------|
|-0---------------|-0---------------|-------------0-|-0---4--4--2-|
|---2-----2-------|-----------------|-----------2---|-------------|

|-----------------|---------------|---------------|--------------|
|------4----4-4-4-|---------------|-2-4--4--4-----|--------------|
|-0---------------|-0---0-0-0-0-0-|-------------0-|-0---4--4--2--|
|---2-----2-------|---------------|-----------2---|--------------|

|-----------------|---------------|-----------------|-2-2-2-2-2-2-2-2-2-|
|------4----4-4-4-|---------------|---------0-0-4-4-|-------------------|
|-0---------------|-0---0-0-0-0-0-|-2-2-4-4---------|-------------------|
|---2-----2-------|---------------|-----------------|-------------------|
[ Tab from: http://www.guitartabs.cc/tabs/a/alice_in_chains/rooster_btab_ver_4.html ]
|-----------------|---------------------|-----------------|-2-2-2-2-2-2-2-2-2-|
|-------4---4-4-4-|-----------4---------|---------0-0-4-4-|-------------------|
|-----------------|---------------------|-2-2-4-4---------|-------------------|
|-0-2-2-----------|-0-2-0-2-0---2-2-2-2-|-----------------|-------------------|

|---------------|-------------|-----------------|-------2-2-2-2---|
|-------4--4----|-------------|------4----4-4-4-|-----------------|
|---------------|-0---4--3--2-|-0---------------|-0-0-0-----------|
|-0-2-2------2--|-------------|---2-----2-------|-----------------|

|---------------|-------------|-----------------|-------2-2-2-2---|
|-------4--4----|-------------|------4----4-4-4-|-----------------|
|---------------|-0---4--3--2-|-0---------------|-0-0-0-----------|
|-0-2-2------2--|-------------|---2-----2-------|-----------------|

|----------|---------------|-------------|---------------|
|----------|-2-4--4----(4)-|-------------|------4----(4)-|
|-0--------|---------------|-----4--3--2-|-0-------------|
|----------|---------------|-5-----------|---2-----------|

|-------------|--------------|--------------|--------------|
|-------------|-----4----(4)-|--------------|-----4----(4)-|
|-0---0---0---|--------------|-0------(0)---|--------------|
|-----------0-|-2------------|------------0-|-2------------|

|----------------|---------------|-------------|----------------|
|----------------|-2-4--4----(4)-|-------------|------4----(4)--|
|-0------(0)-0-0-|---------------|-----4--3--2-|-0--------------|
|----------------|---------------|-5-----------|---2------------|

|---------------|--------------|--------------|--------------|
|---------------|-----4----(4)-|--------------|-----4----(4)-|
|-0---0-0-0-0---|--------------|-0------(0)---|--------------|
|-------------0-|-2------------|------------0-|-2------------|

|-----------------|-2-2-2-2-2-2-2-2-2-|-----------------|----------------------|
|-----------------|-------------------|-------4---4-4-4-|-----------4----------|
|-0---0-0-0-0-0-0-|-------------------|-----------------|----------------------|
|-----------------|-------------------|-0-2-2-----------|-0-2-0-2-0---2-2-2-2--|

|-----------------|-2-2-2-2-2-2-2-2-2-|---------------|--------------|
|---------0-0-4-4-|-------------------|-------4--4----|--------------|
|-2-2-4-4---------|-------------------|---------------|-0---4--3--2--|
|-----------------|-------------------|-0-2-2------2--|--------------|

|-----------------|-----2-2-2-2---|---------------|--------------|
|------4----4-4-4-|---------------|-------4--4----|--------------|
|-0---------------|-0-------------|---------------|-0---4--3--2--|
|---2-----2-------|-------------0-|-0-2-2------2--|--------------|

|-----------------|--------------|--------------|-----4--2-----|
|------4----4-4-4-|--------------|-2-4-4-4---4--|-----------2--|
|-0---------------|-0---0----(0)-|--------------|-0------------|
|---2-----2-------|--------------|--------------|--------------|

|---------------|---------------|--------------|-----2-4--2---|
|-4--4-4----(4)-|---------------|-2-4-4-4---4--|--------------|
|---------------|---------------|--------------|-0------------|
|---------------|-5---5---5-5-5-|--------------|--------------|

|---------------|------*|
|-4----(4)-4-4--|------*|
|---------------|-0----*|
|---------------|------*|
Comments