Alice In Chains - Rooster Chords & Tabs

 

Rooster Chords & Tabs

Alice In Chains Chords & Tabs

Version: 2 Type: Bass Tab 0 ratings
1 star 2 stars 3 stars 4 stars 5 stars
comments

Rooster Bass Tab

ROOSTER-ALICE IN CHAINS
FROM THE ALBUM DIRT.
(also found on the greatest hits cd)

A classic piece of aic here. This is by far my fave aic song

Intro

|----------2h4-2------------------------|
|2-4--4----------2-4---4----------------|    
|--------0---------------0---0--0-0-0-0-|  
|---------------------------------------| X4(i think)


Verse

|----------------------------------------------------------------------------------------------|
|2-4--4--------------4----------------4-----------4----------2-4--4--------------4-------------|
|-------0-4-3-2-0-------0--0--0----------0-----------0---0-0--------0--4-3-2-0-----0-0-0-0-0---|
|-----------------2-------------0--2---------0-2-------------------------------2-------------0-|

|-------------------|
|---4----------4----|
|------0----------0-|
|2--------0-2-------|X1

1st chorus

|-----------------------------------------------------------------------|
|---------4--7--7/---------4------------4---------------------4--7---7/-|
|2--4--5---------------------------------------------2--4--5------------|
|------------------0h2--2-----0h2-0-2-0----2-2-2-2-2--------------------|x1

|-----------------------------------------------------------|
|------4--4---------------------4-----4-4-4----7--7-7-7-7-7-|
|--------------0--4--3--2--0----------------0---------------|
|0-2-2------2----------------2-----2------------------------|X2


Interlude
[ Tab from: http://www.guitartabs.cc/tabs/a/alice_in_chains/rooster_btab_ver_2.html ]
|---------------------------------------------------------|
|2-4--4-4----0------------------4----4-4-4----------------|
|--------------0--4--3--2--0---------------0---0--0-0-0-0-|
|----------2-----------------2-----2----------------------|X3


2nd Chorus

|----------------------------------------------------------------------------------------------|
|------------4-4-7-7-7-7-7-7-7-7-7-----4--4-4-4-----------4----------------------4-4-7-7-7-7-7-|
|2-2-4-4-5-5---------------------------------------------------------2-2-4-4-5-5---------------|
|----------------------------------0h2----------0h2-0-2-0----2-2-2-2---------------------------|

|--------|
|7-7-7-7-|
|--------|
|--------|X?

outro

|---------------2h4-4-2-------------------------------------2-2h4--2-------------|
|2-4-4-4---4------------2-4--4-4--------------2-4-4-4--4-------------4---4-4/----|
|-------------0-------------------0--0--0-0-0-------------0----------------------|
|------------------------------------------------------------------------------0-|X1
_________________________________________________________________________________________________
Afew things:
Theres quite a large part of the 2nd chorus missing, sorry.
Ive tried to show the timing, probably hasnt come across right though.
I think it sounds best with a pick, though its good fingered too.
Feel free to post this tab on other sites, you dont have to ask me or anything, just give me
credit.
email me with any problems (or if your just bored) at fffan41@aol.com, or i.m me on fffan41
Hope this comes out right.
Comments