Alice In Chains - Rooster Chords & Tabs

 

Rooster Chords & Tabs

Alice In Chains Chords & Tabs

Version: 1 Type: Bass Tab 0 ratings
1 star 2 stars 3 stars 4 stars 5 stars
comments

Rooster Bass Tab

   
Alice In Chains - Rooster

Original by:odin@blvl.igs.net
1st Correction by: The Warlord adrock17@email.com
New Correction by:David Parent david_parent@yahoo.com

I found from listening to the song and following along on the tab that it was
missing some stuff. I also put in some (but not all) of the numerous variations
that are played throughout the song. Some of it still doesn't sound right, but
it was the best I could do, and I think this is better than what was there
before (no offense to The Warlord).

Intro
|----------------------------------------|
|------------6/8-6-----------------------| x4
|-6h8-8-8----------6h8-8-----------------|
|---------4--------------4-4-4-4-4-4-4-4-|

Verse                                |                   x2|
|------------------------------------|---------------------|
|--------------------3---------------|-----3---------------| x2
|-6h8-8----3-2-1---------------------|---------------------|
|-------4--------4-1---4-4-4-4-4-4-4-|-1-4---4-4-4-4-4-4-4-|

Chorus 1
|------------------------------------------|
|-------3-6---6\-----3-----------3---------|
|-1-3-4------------------------------------|
|----------------1h4---1h4-1h4-1---1-1-111-|

Chorus Riff A    |                              x2|
|----------------|--------------------------------|
|-------3-6---6\-|-----------------------3--6--6\-|
|-1-3-4----------|-6h8-8---3-2-1------------------|
|----------------|-------4-------4-1-1-1----------|
[ Tab from: http://www.guitartabs.cc/tabs/a/alice_in_chains/rooster_btab.html ]
Bridge
|------------------------------|
|-------------------------3-3--| x3
|-6h8-8-8---3-2-1--------------|
|---------4-------4-1-1-1------|

Chorus 2
|---------------------------------------------------|
|-------3-6---6\-----------3--------------3---------|
|-1-3-4---------------------------------------------|
|----------------1h4-1h4-1---1--1h4-1h4-1---1-1-111-|

Chorus Riff A

Repeat Verse

Chorus 3
|------------------------------------------------------------|
|-------3-6-6-6-6-6-6-6-6-----------3--------------3---------|
|-1-3-4------------------------------------------------------|
|-------------------------1h4-1h4-1---1--1h4-1h4-1---1-1-111-|

|---------------------------------------|
|-------3-6-6-6-6-6-6-6-6-----------3---|
|-1-3-4---------------------------------|
|-------------------------1h4-1h4-1---1-|

|------------------------------|
|-------------3-66-66-66-6666\-|
|---3-2-1----------------------|
|-4-------4-1------------------|

|-----------------------------------|
|---3---------------3-66-66-66-6666-|
|---------3-2-1---------------------|
|-4---1h4-------4-1-----------------|

Outro
|-----------------------------------------|
|-----------6/8-6-------------------------|
|-6h8-8-8---------6h8-8-8-----------------|
|---------4---------------4-4-4-4-4-4-4-4-|

|-----------------------------|
|-----------6-8-6-------------|
|-6h8-8-8---------6h8-8-------|
|---------4-------------4-----|

I hope this is to your liking.

Comments