Alice In Chains - Over Now Chords & Tabs

 

Over Now Chords & Tabs

Alice In Chains Chords & Tabs

Version: 2 Type: Tab 0 ratings
1 star 2 stars 3 stars 4 stars 5 stars
comments

Over Now Tab

   
"Over Now"
Alice In Chains
Alice In Chains (Tripod)
1995 Columbia Records

Tabbed by Yohomyth

Tuning: Open C#
C# G# C# F G# C#


Main Riff
=========
1:-----7-6-4------------------------|
2:-----4-4-4-7-6-4-----4-4---4---4--|
3:-----4-4-4-4-4-4-----5-4---5---4--|
4:-----4-4-4-4-4-4-----4-4---4---4--|
5:-4-4-4-4-4-4-4-4-4-4-6-4-4-6-4-4--|
6:-4-4-4-4-4-4-4-4-4-4-4-4-4-4-4-4--|
{PM---             -----------------|     -   -  }

1:-----3-2-0------------------------|
2:-----0-0-0-3-2-0-----0-0---0---0--|
3:-----0-0-0-0-0-0-----1-0---1---0--|
4:-----0-0-0-0-0-0-----0-0---0---0--|
5:-0-0-0-0-0-0-0-0-0-0-2-0-0-2-0-0--|
6:-0-0-0-0-0-0-0-0-0-0-0-0-0-0-0-0--|
{PM---             -----------------|     -   -  }


Chorus
======
1:----------------------------------------|
2:-----10---10-10---10-----10---10-10---9-|
3:-----7----7--7----7------7----7--7----6-|
4:-----7----7--7----7------7----7--7----6-|
5:-7-7-7--7-7--7--7-7--7-7-7--7-7--7--7-6-|
6:-7-7-7--7-7--7--7-7--7-7-7--7-7--7--7-6-|
{PM---    -       -    ---    -       -}
[ Tab from: http://www.guitartabs.cc/tabs/a/alice_in_chains/over_now_tab_ver_2.html ]
1:--------------------------------------|
2:-----9---9-9---12-----12---12-12---12-|
3:-----6---6-6---9------9----9--9----9--|
4:-----6---6-6---9------9----9--9----9--|
5:-6-6-6-6-6-6-6-9--9-9-9--9-9--9--9-9--|
6:-6-6-6-6-6-6-6-9--9-9-9--9-9--9--9-9--|
{PM---   -     -    ---    -       -   }

1:---------------------|
2:-----12---12-12---12-|
3:-----9----9--9----9--|
4:-----9----9--9----9--|
5:-9-9-9--9-9--9--9-9--|
6:-9-9-9--9-9--9--9-9--|
{PM---    -       -   }


"We pay our debt sometime..."
=============================
1:-------------------------2-------|
2:-----0-----2-----4---------4-----|
3:---3---3-----3-----3---3-----3---|
4:-4-------4-----4-----4---------4-|
5:---------------------------------|
6:---------------------------------|

1:-------------------------0-------|
2:-----0-----2-----4---------4-----|
3:---3---3-----3-----3---3-----3---|
4:-0-------0-----0-----0---------0-|
5:---------------------------------|
6:---------------------------------|


Ending
======
1:---0-------0-------0-------0-----|
2:-------4-------4-------4-------4-|
3:-----0-------0-------0-------0---|
4:-4-------4-------4-------4-------|
5:---------------------------------|
6:---------------------------------|

1:-------0-------0-------0-------0-|
2:---4-------4-------4-------4-----|
3:-----0-------0-------0-------0---|
4:-0-------0-------0-------0-------|
5:---------------------------------|
6:---------------------------------|
Comments