Alice In Chains - No Excuses Chords & Tabs

 

No Excuses Chords & Tabs

Alice In Chains Chords & Tabs

Version: 3 Type: Bass Tab 0 ratings
1 star 2 stars 3 stars 4 stars 5 stars
comments

No Excuses Bass Tab

This song is pretty easy.  Have fun!

VERSE:


G:-----------------|----------------|
D:-------------9h11|--9-------------|
A:-----------------|------9---7---9-|
E:5/7-7---7--------|----------------|

Every so often, throw in a:

G:-----------------|------9-8-------|
D:-------------9h11|--9-------9---9-|
A:-----------------|------------9---|
E:5/7-7---7--------|----------------|




CHORUS:
[ Tab from: http://www.guitartabs.cc/tabs/a/alice_in_chains/no_excuses_btab_ver_3.html ]
  1 & 2 & 3 & 4 &  1 & 2 & 3 & 4 &  1 & 2 & 3 & 4 &  1 & 2 & 3 & 4 &
G:----------------|----------------|----------------|----------------|
D:----------------|----------------|----------------|----------------|
A:----------------|--------------2-|2---2---2---0-2-|--2-2---2-------|
E:3---3---3-0-3-5-|--5-5-0-5-0-5---|----------2-----|----------2-5-0-|

  1 & 2 & 3 & 4 &  1 & 2 & 3 & 4 &  1 & 2 & 3 & 4 &  1 & 2 & 3 & 4 &
G:----------------|----------------|----------------|----------------|
D:----------------|----------------|----------------|----------------|
A:----------------|----4---5-5-7---|----------7---7-|----------------|
E:3---3---3-0-3-5-|--5-------------|0---0---0-------|--0-0---0-5-5-5-|



That's about it!  Here's the song structure..


1) Drum Intro
2) Verse 12x
3) Chorus
4) Verse 12x
5) Chorus
6) Verse 4x
7) Chorus (guitar solo)
8) Verse 8x
9) Chorus
10) Verse (slows down then ends)
Comments