Alice In Chains - Junkhead Chords & Tabs

 

Junkhead Chords & Tabs

Alice In Chains Chords & Tabs

Version: 1 Type: Tab 1 rating
1 star 2 stars 3 stars 4 stars 5 stars
comments

Junkhead Tab

   
Artist: 	Alice In Chains
Album: 		Dirt
Title:  	Junkhead
CD # :  	8
Tabbed by: 	Jonathon Reinhart

Tuned down 1/2 step: (For that heavier, Alice in Chains feel)

Eb Ab Db Gb Bb Eb

This is a kickass song about the life of the junkie...

Its not hard, have fun.



Main Riff:  Intro part of verse, and ending:  (Dist.)

 Bb5   A5     F#5  F5   E5      Eb5     

|-------------------------------------|
|-------------------------------------|
|-------------------------------------|
|-9----8----8--5----4----3----3--2----|
|-9----8----8--5----4----3----3--2----|
|-7----6----6--3----2----1----1--0----|
                              *  *


Improv. 1: (2:00)

|-------------------------------------|
|-------------------------------------|
|-----------------------------5b6r----|
|-------------------------------------|
|-------------------------------------|
|-------------------------------------|

Improv. 2: (2:07)

|----------------------------10--12b--|
|---------------------10--12----------|
|-------------------------------------|
|-------------------------------------|
|-------------------------------------|
|-------------------------------------|
[ Tab from: http://www.guitartabs.cc/tabs/a/alice_in_chains/junkhead_tab.html ]
Chorus: (Dist.)
 Ab5   B5      F#5   E5

|-----------------3------------|
|------------------------------|
|------------------------------|
|-7----10-------5----3---------|
|-7----10-------5----3---------|
|-5----8--------3----1---------|


Solo: (Dist. w/ some harmonizer effect) (over bass playing chorus)


  Ab5             B5                 F#5             E5

|-----------------15-----15--15h17---15---15--15h17--13---13------------------|
|-------------------------------------------------------------17p15-13h15-----|
|-14---14--14h17----------------------------------------------------------12--|
|-----------------------------------------------------------------------------|
|-----------------------------------------------------------------------------|
|-----------------------------------------------------------------------------|


Section		Riff(s)		Times	Notes
-------		----------	-----	-----
Intro		Main Riff	4x
Verse 1		Main Riff (PM)	4x
Chorus		Chorus		4x
Verse 2		Main Riff	4x	
		Main Riff (PM)	4x	Improv 1 on 1st time, 2 on 2nd 
Chorus		Chorus		4x
Solo		Solo		4x
Interlude	Main Riff	4x
Verse 3		Main Riff (PM)	4x
Chorus		Chorus		4x
Outro		Main Riff 	4x	(PM on last 2 chords)


	 _     _ 	 _     _
	| |___| |	| |___| |
	| | | | |	| | | | |
	| |/^/| |	| |\^\| |
	\ / /  /	 \  \ \ /
	 \____/		  \____/
Comments