Alice In Chains - Got Me Wrong Chords & Tabs

 

Got Me Wrong Chords & Tabs

Alice In Chains Chords & Tabs

Version: 3 Type: Bass Tab 0 ratings
1 star 2 stars 3 stars 4 stars 5 stars
comments

Got Me Wrong Bass Tab

   
-----------------------------------------------------------------------------
			     Got Me Wrong - Alice in Chains
-----------------------------------------------------------------------------

Tabbed By : NewDysfunction
e-mail: NewDysfunction@aol.com feel free to mesage me on Aim

Tuning: This is half stepped Eb,Ab,Db,Gb

Here we are poeple, I'm back with my third tab, the other one I found was 
close but wrong. he left out a few parts, and got sum notes wrong. I put
in some lyrics to help u get a feel of were to play what. This is a great
song, and I like the unplugged version better. I think this is almost 
perfectly (excusing my spelling) rite, if im wrong tell me, vote on it 2 please.

				Intro

It can be tricky to find exactly were to play this part, jsut listen closely
G|--------------------------------------------------------------------------|
D|----------------4h6-------------------------------------------------------|
A|----4h6-------------------6p4---------------------------------------------|
E|-----------------------------------4--------------------------------------|

				Verse
Yeh, it goes away
All of this and more of nothing in my life
No color clay
Individuality not safe
G|--------------------------------------------------------------------------|
D|--------------------------------------------------------------------------|
A|--------------------------------2-----------------------------------------|
E|--4---4----0--0--0---2---0---4-----4--0--0--0---2-------------------------|
[ Tab from: http://www.guitartabs.cc/tabs/a/alice_in_chains/got_me_wrong_btab_ver_3.html ]
				Chorus
As of now I bet you got me wrong
So unsure you run from something strong
G|--------------------------------------------------------------------------|
D|--------------------------------------------------------------------------|
A|--5---5--8--8--4---4--------------------------------------2---------------|
E|----------------------5--5---4---4---0--0--0---2---0---4-----4--0--0--0--2|

When the second and third chorus comes you will play it all the way through 
once, then half way through the second time you play this

I haven't felt like this in so long
Wrong, in a sense too far gone from love				
G|--------------------------------------------------------------------------|
D|--------------------------------------------------------------------------|
A|--------------------------------------------------------------------------|
E|--0--0---2-2---5-5-5-5-5-5-5-5--------------------------------------------|

				Bridge/Outro
That don't last forever
Something's gotta turn out right
G|--------------------------------------------------------------------------|
D|--------------------------------------------------------------------------|
A|--------------------------------------------------------------------------|
E|--2--2--2--2--5--5--5--5--5-----------------------------------------------|

As usual play aorund with it, slide around, have fun enjoy the tab people

| /  slide up
| \  slide down
| h  hammer-on
| p  pull-off
| ~  vibrato
| +  harmonic
| x  Mute note
=============================================================================
Comments