Alice In Chains - Frogs Chords & Tabs

 

Frogs Chords & Tabs

Alice In Chains Chords & Tabs

Version: 3 Type: Tab 0 ratings
1 star 2 stars 3 stars 4 stars 5 stars
comments

Frogs Tab

   
Frogs
Alice In Chains
Alice In Chains
Guitar Tabs
Tabs by Yohomyth

Tuning: Eb (Eb,Ab,Db,Gb,Bb,Eb)


Main Riff
=========

1:---------------------------------|
2:---------------------------------|
3:---------------------------------|
4:-----5-----5-----5-----5---5---5-|
5:---4-----4-----4-----4-----------|
6:-0-----0-----0-----0-----4---3---|


Intro A
=======

1:------------g19~-----\\---|
2:-19b20b19---g19~-----\\---|
3:--------------------------|
4:--------------------------|
5:--------------------------|
6:--------------------------|


Intro B
=======

1:--------------------|---------------10b12b10---|
2:--------------------|--------------------------|
3:--------------------|--------------------------|
4:---7-b-9---5--5b7b5-|----7-b-9---5-------------|
5:-5-------7----------|--5-------7---------------|
6:--------------------|--------------------------|


Verse
=====

Guitar 1
play main riff

Guitar 2

1:-----------------------------------------|
2:-------------5-----------<7>-------------|
3:---6b7b6b7-------6b7---------------------|
4:---------------------5-------------0---0-|
5:-----------------------------------------|
6:-0---------0---0-------0-------0-4---3---|


Fill before prechorus
====

Guitar 1

1:-----------|
2:-----------|
3:-----------|
4:-----5---5-|
5:-----------|
6:-0-5---4---|

Guitar 2

1:-----------|
2:-----------|
3:-----------|
4:-----0---0-|
5:-----------|
6:-0-5---4---|


Fill acoustic on verse 2
====

1:-------------------3-|
2:---------0h3p0---5---|
3:-----3-4-------4-----|
4:-//4-----------------|
5:---------------------|
6:---------------------|


Fill m3 of verse 2
====

Guitar 1

1:-----------|
2:-----------|
3:-----------|
4:-----5---5-|
5:-----------|
6:-0-6---5---|

Guitar 2

1:-----------|
2:-----------|
3:-----------|
4:-----0---0-|
5:-----------|
6:-0-6---5---|


Prechorus
=========

Guitar 1

1:-------------------------|
2:-------------------------|
3:-------------------------|
4:-----5-----5-----5-----5-|
5:---5-----4-----5-----4---|
6:-3-----3-----3-----3-----|

Guitar 2

1:------------------------------|-------|
2:-7---7/9-7---9-9/11-9-7---7/9-|-------|
3:-x---x---x---x-x----x-x---x---|-9-----|
4:-5---5/7-5---7-7/9--7-5---5/7-|-x-----|
5:------------------------------|-7-----|
6:------------------------------|-------|


Chorus
======

Guitar 1

1:----------------------3---3--|
2:----------------------3---3--|
3:----------------5-----5---5--|
4:-----5----------5-----5---5--|
5:---3---3-3-3/5--3-----3---3--|
6:-4-----4-4-4/6--3-----3---3--|

Guitar 2

1:--------------------------------------------------|
2:-8-8-8-8-8-8/10-------------------------7---------|
3:-x-x-x-x-x-x----12--\-5---5---5-7-8-----x----5----|
4:-6-6-6-6-6-6/8--x---------x---x-x-x-----5----x----| x2
5:----------------10--\-3---3---3-5-6----------3----|
6:--------------------------------------------------|
[ Tab from: http://www.guitartabs.cc/tabs/a/alice_in_chains/frogs_tab_ver_3.html ]
1:-----------8---10b11--10-8------8---|
2:---------8---8-------------8--8---8-|
3:-----8-7----------------------------|
4:-5-6--------------------------------|
5:------------------------------------|
6:------------------------------------|

1:-----------8---10b11--10-8-10b11----|
2:---------8---8----------------------|
3:-----8-7----------------------------|
4:-5-6--------------------------------|
5:------------------------------------|
6:------------------------------------|

1:-----------8---10b11--10-8------8---|
2:---------8---8-------------8--8---8-|
3:-----8-7----------------------------|
4:-5-6--------------------------------|
5:------------------------------------|
6:------------------------------------|

1:-----------8---------|
2:---------8-----3-----|
3:-----8-7-------0-----|
4:-5-6-----------2-----|
5:---------------2-----|
6:---------------3-----|


Acoustic riff 1
========

1:-----------|
2:-----------|
3:-----------|
4:-----0-----|
5:-----2-----|
6:-----3-----|


Acoustic riff 2
========

1:-------------------------------------|
2:-------------------------------------|
3:-------------------------------------|
4:---0---------------------0-----------|
5:---------4b5b4---4-------------------|
6:-6---5-0-------3-------6---5-3-0-----|


Acoustic riff 3
========

1:-----------------------------------|
2:-----------------------------------|
3:-----0h4p0-------------------------|
4:-//5-------5-4b5b4-----------------|
5:-------------------2-4-4b5b4---4---|
6:-----------------------------0-----|


Electric riff 1
========

1:------------------------------|
2:-<7>-----<7>-------<7>--------|
3:-----<5>-----<5>-------<5>----|
4:------------------------------|
5:------------------------------|
6:------------------------------|


Electric riff 2
========

Guitar 1:

1:-----------------------------------------------------|
2:-----------------------------------------------------|
3:---3b4b3-----3-----------------3b4b3-----3-----------|
4:---------4-5-------4-----------------4-5-------4-----|
5:---------------4-5-------4-----------------4-5-------|
6:-0-------------------3-5---3-0-------------------3-5-|

1:---------------------------------------------------------------|
2:---------------------------------------------------------------|
3:-------3b4b3-----3-------------------3b4b3-----3---------------|
4:-------------4-5-------4-------------------4-5-----------------|
5:-4-----------------4-5-------4b5b4---------------4b5b4b5b4-----|
6:---3-0-------------------3-5-------0-----------------------3-5-|

Guitar 2:

1:-------------|----------------------------------|
2:-------------|-11b12b11-------11----------------|
3:-------------|----------11-12----------11-------|
4:-11b12b11----|-------------------11-12----------|
5:-------------|----------------------------10-12-|
6:----------12-|----------------------------------|


Electric riff 3
========

1:----15----15------15---|
2:-19----19------19------|
3:-----------------------|
4:-----------------------| x5
5:-----------------------|
6:-----------------------|

1:----15-----------------|
2:-19--------------------|
3:-------16b19---b16--\\-|
4:-----------------------|
5:-----------------------|
6:-----------------------|
Comments