Alice In Chains - Frogs Acoustic Chords & Tabs

 

Frogs Acoustic Chords & Tabs

Alice In Chains Chords & Tabs

Version: 1 Type: Tab 0 ratings
1 star 2 stars 3 stars 4 stars 5 stars
comments

Frogs Acoustic Tab

   
Frogs
Alice in Chains
Unplugged
Tabbed by: Che Zoso (slimslowest2@aol.com)

First Tab but this is how unplugged does it.
Same as studio version, except missing a lot of guitar fills,
if someone knows them throw em in.

Key:

b-Bend
r-Release bend
nh- Natural Harmonic (hold finger above the fret bar of the fret number and pick, You 
hear a pitch sound.)
Tuning:
Half Step down

Note: Spacing does not denote timing.  This tab has everything you need for unplugged, 
gotta put it together

Main Riff Repeat 4x,
e|-------------------------------------------|
B|-------------------------------------------|
G|--------0-------0------0------0---0----0---|
D|-------------------------------------------|
A|-----4-------4-------4------4--------------|
E|---0-------0-------0------0-----4----3-----|

Lead, Plays over Main Riff, along with the lyrics

e|-----------------------------------------|
B|-----------------------------------------|
G|-----6b-r----------------7nh-------------|
D|------------5----6b------------0--0---0--|
A|-----------------------------------------|
E|---------0----0--------------0--4----3---|

Prechorus (oo part)

Repeat so many times then back to verse.
e|------------------------------------|
B|------------------------------------|
G|------------------------------------|
D|------5------5-----5------5---------|
A|----5------4-----5------4-----------|
E|--3-----3------3------3-------------|
[ Tab from: http://www.guitartabs.cc/tabs/a/alice_in_chains/frogs_acoustic_tab.html ]
After 2nd verse, it goes into Prechorus Then into chorus
e|----------------------------3--------------------------|
B|----------------------------3--------------------------|
G|----------------------------0-----(Strum this chord)---|
D|----------5-------5---------0--------------------------|
A|-------3-------3--3---------2--------------------------|
E|----4-------4--4--4---------3--------------------------|

Repeast chorus 2x then lead plays along (why's it have to be this way)
e|---------------------------8------10b---8-----8-------|
B|-----------------------8-----8-------------8----------|
G|---------------8--7-----------------------------------|
D|------5--6--------------------------------------------|
A|------------------------------------------------------|
E|------------------------------------------------------|

e|---------------------------8--------10b---8-----10b---|
B|-----------------------8------8--------------8--------|
G|--------------8---7-----------------------------------|
D|-----5--6---------------------------------------------|
A|------------------------------------------------------|
E|------------------------------------------------------|

That's it besides the adlib at the end, a chord is periodically strummed and muted 4and 
lead plays around with its natural harmonics

e|---------------------------------------------0---------|
B|----------7nh-----------7nh------------------0---------|
G|-----------------5nh-----------5nh-----------5nh-------|
D|-------------------------------------------------------|
A|-----------(done repeatedly till this comes up^)-------|
E|-------------------------------------------------------|

But like i said, its just like the studio version somebody comment on
some of those fills
Comments