Alice In Chains - Again Chords & Tabs

 

Again Chords & Tabs

Alice In Chains Chords & Tabs

Version: 4 Type: Tab 0 ratings
1 star 2 stars 3 stars 4 stars 5 stars
comments

Again Tab

   
"Again"
Alice In Chains
Alice In Chains (Tripod)
Columbia Records 1995

Tabbed by Yohomyth

Tuning: D#
D# G# C# F# A# D#


Main Riff
=========
1:----------------------------------|
2:----------------------------------|
3:---6-----------7------------------|
4:---6-----------7------------------|
5:-6---6-6-6-6-6---5-5-5-5-5-5-5-66-|
6:-4---4-4-4-4-4---3-3-3-3-3-3-3-44-|

[ Tab from: http://www.guitartabs.cc/tabs/a/alice_in_chains/again_tab_ver_4.html ]
Chorus
======
1:---------------------------------|
2:---------------------------------|
3:---------------------------------|
4:-6-------------5---5-5-5-5-5-5-5-|
5:-6---4---5-4---5---5-5-5-5-5-5-5-|
6:-4-4---4-----4-3---3-3-3-3-3-3-3-|

1:---------------------------------|
2:---------------------------------|
3:---------------------------------|
4:-6-------------7---7-7-7-7-7-7-7-|
5:-6---4---5-4---7---7-7-7-7-7-7-7-|
6:-4-4---4-----4-5---5-5-5-5-5-5-5-|


Interlude
=========
1:---------------------|
2:---------------------|
3:-----5---------------|
4:-6-6-6---------5-7-7-|
5:-6-4-6---------5-5-5-|
6:-4-4---<4>-<3>-3-5-5-|

Lead:

1:-------------------------------------|
2:-7--b9-9-9-9-9-9-9-9-9b7-------------|
3:---------------------------6--b7-----|
4:-------------------------------------|
5:-------------------------------------|
6:-------------------------------------|
Comments