Alice Deejay - Better Off Alone Chords & Tabs

 

Better Off Alone Chords & Tabs

Alice Deejay Chords & Tabs

Version: 1 Type: Tab 0 ratings
1 star 2 stars 3 stars 4 stars 5 stars
comments

Better Off Alone Tab

Alice Deejay - Better Off Alone
By: bt12483@aol.com

~=let ring
/=slide

Intro: Lead Guitar(:00 to :26, with some kind of delay/echo effect on)
e|------------------------------------------------------------------|
B|-12p0p12p0~-0p12h9p0p9p0~-0p9h14p0p14p0~-0p14h11p0p11p0~----------|
G|------------------------------------------------------------------|
D|------------------------------------------------------------------|
A|------------------------------------------------------------------|
E|------------------------------------------------------------------|

Rhythm Guitar (Entire song except for a few parts, listen)
e|------------------------------------------------------------------|
B|------------------------------------------------------------------|
G|--------8--------------------------9------8-------13------11------|
D|-2------8-[x8]-6------4-------or---9-[x8]-8-[x8]--13-[x8]-11-[x8]-|
A|-2-[x8]-6------6-[x8]-4-[x8]-------7------6-------11-------9------|
E|-0-------------4------2-------------------------------------------|
[ Tab from: http://www.guitartabs.cc/tabs/a/alice_deejay/better_off_alone_tab.html ]
Lead Guitar(:55 to 1:36)  
e|-----------------------------------------------12-12-11-----------|
B|-12~-12~-12~-12~-12~-11h12~-12~-11h12~-12-12-9----------12-12-9---|
G|------------------------------------------------------------------|
D|------------------------------------------------------------------|
A|------------------------------------------------------------------|
E|------------------------------------------------------------------|

e|---------12-12-11-------------------------------------------------|
B|-12-12-9----------12-12-9-----------------------------------------|
G|------------------------------------------------------------------|
D|------------------------------------------------------------------|
A|------------------------------------------------------------------|
E|------------------------------------------------------------------|

Lead Guitar: Main Riff (repeated throughout song)
e|--------------------14-14-11-7-7-4-7-7-6/12-12-11-repeat----------|
B|-12-12-9-12-12-11-9/----------------------------------------------|
G|------------------------------------------------------------------|
D|------------------------------------------------------------------|
A|------------------------------------------------------------------|
E|------------------------------------------------------------------|
Comments