Alice Cooper - Schools Out Chords & Tabs

 

Schools Out Chords & Tabs

Alice Cooper Chords & Tabs

Version: 4 Type: Tab 0 ratings
1 star 2 stars 3 stars 4 stars 5 stars
comments

Schools Out Tab

   
                  School's out for summer-Ellis Cooper

 Tabbed by Dave Hewlett

 P.M.-Palm mute
 b-bend
 r-release
 h-hammer on
 p-pull off
 v-vibrato
 \-slide down
 /-slide up

I hope it sounds o.k. I think it sounds pretty close.

Intro(both guitars):

e|-----------------------------|
B|-----------------------------|
G|-----9-----7-----9-7---------|times abunch
D|-----9-----7-----9-7--7------|
A|-----7-----5-----7-5--7------|
E|-0-0---0-0---0-0------5------|
   P.M.  P.M.  P.M.

Verse(both guitars):

e|-----------------------------|
B|-----------------------------|
G|-----9-----7-----9-7v--------|
D|-----9-----7-----9-7v--------|
A|-----7-----5-----7-5v--------|
E|-0-0---0-0---0-0-------------|
   P.M.  P.M.  P.M.

Pre Chorus:

e|---------------------------------------|
B|---------------------------------------|
G|-9-9-9-9-9-9-9-9-\-7-7-7-7-7-7-7-7-----|
D|-9-9-9-9-9-9-9-9-\-7-7-7-7-7-7-7-7-----|
A|-7-7-7-7-7-7-7-7-\-5-5-5-5-5-5-5-5-----|
E|---------------------------------------|

Chorus(guitar 2)

e|----------------------------------------------------------|
B|---------------(This-part-sounds-like-the-drum-beat)------|
G|-9---7-----5-7---------9-------9-------9------------------|
D|-9---7--7--5-7---------9-------9-------9------------------|
A|-7---5--7--3-5---7-7-7-7-7-7-7-7-7-7-7-7------------------|
E|--------5-------------------------------------------------|

Chorus(licks played by lead gitar):

1st Chorus

1st lick   2nd lick  3rd lick
e|--------|---------|-13b-13-13b-13-13b-13-13b-13-13b-13-13br---|
B|--------|---------|-------------------------------------------|
G|---3b---|-6--3-2b-|-------------------------------------------|
D|--------|---------|-------------------------------------------|
A|--------|---------|-------------------------------------------|
E|--------|---------|-------------------------------------------|

2nd Chorus
[ Tab from: http://www.guitartabs.cc/tabs/a/alice_cooper/schools_out_tab_ver_4.html ]
1st lick              2nd lick
e|-6b--5b------------|-12b-11b-12b-11b-12b-11b-12b-11b-11-12p11----13-10-|
B|--------4p6---6-8v-|------------------------------------------12-------|
G|------------6------|---------------------------------------------------|
D|-------------------|---------------------------------------------------|
A|-------------------|---------------------------------------------------|
E|-------------------|---------------------------------------------------|

3rd Chorus

1st lick                      2nd lick
e|---------------------------|-13b-12b-10----------13-12-10-----|
B|---------------------------|------------13p10-----------------|
G|-12b-10-12b-10-12b-10-12br-|------------------13--------------|
D|---------------------------|----------------------------------|
A|---------------------------|----------------------------------|
E|---------------------------|----------------------------------|

3rd lick
e|-13b-13b-13b-13p10----13-10---|
B|-------------------13---------|
G|------------------------------|
D|------------------------------|
A|------------------------------|
E|------------------------------|

Guitar Solo(lead guitar)(2nd guitar plays the main/verse riff):

e|---------------------------------------------------------------|
B|-15b-15-15b-15-15b-15-15b-15-15b-15----------------------------|
G|------------------------------------15h12h15-------------------|
D|---------------------------------------------15h12h15----------|
A|------------------------------------------------------12v------|
E|---------------------------------------------------------------|

e|----------------------------|------12b-|-15b-15p14----------|
B|----------------------------|-9/11-----|-----------15-17----|
G|-9b-8b-9b-8b-9b-8b-9-8-7-6v-|----------|--------------------|
D|----------------------------|----------|--------------------|
A|----------------------------|----------|--------------------|
E|----------------------------|----------|--------------------|

Well, it sounds something like that.
Comments