Alice Cooper - Its Hot Tonight Chords & Tabs

 

Its Hot Tonight Chords & Tabs

Alice Cooper Chords & Tabs

Version: 1 Type: Bass Tab 0 ratings
1 star 2 stars 3 stars 4 stars 5 stars
comments

Its Hot Tonight Bass Tab

It's Hot Tonight by Alice Cooper
Standard Tuning

(Intro)
G:------|--------------|-----------------|----------|
D:------|-----------2-2|-----------------|----------|
A:------|5-5-5-5-5-----|--4-5---2--------|---4-5-3-5|
E:------|--------------|0-----5---5-3-5-3|0---------|
	
 |-----------------|-------------------|
 |-----------------|----------------2-2|
 |--4-5---2--------|--4-5-5-5-5-5-5----|
 |0-----5---5-3-5-3|0------------------|

 |-----------------|----------|
 |-----------------|----------|
 |--4-5---2--------|---4-5-3-5|
 |0-----5---5-3-2-3|-0--------|

(Verse)
 |-----------------|----------------|
 |-----------------|---------------2|
 |--------2--------|-----------5----|
 |0-0---5---5-3-5-3|0---------------|

 |------------------|----------|
 |------------------|----------|
 |--------2---------|--4-5-----|
 |0-0---5---5-3-5-3-|0---------|

 |--------------------|-------|
 |4---4--7-4-4-6-4----|-------|
 |--4--------------7-4|4-6-7-4|
 |--------------------|-------|

 |---------------|---------------------|
 |4-----4-7-4----|---------------------|
 |--4-7-------7-4|4-4-4-4-4-4----------|
 |---------------|------------7-7-7-5-3|
[ Tab from: http://www.guitartabs.cc/tabs/a/alice_cooper/its_hot_tonight_btab.html ]
 |--------------------|-------|
 |4---4--7-4-4-6-4----|-------|
 |--4--------------7-4|4-6-7-4|
 |--------------------|-------|

 |--------------------|-------------------|
 |4---4--7-4-4-6-4----|6-6-6-6-6-6-6-6-6-7|
 |--4--------------7-4|-------------------|
 |--------------------|-------------------|

 |---------------|---------------|---------------|
 |--4-6-----4-6--|--4-6---------6|4-4-----4-4----|
 |4-------4------|4-------4-4-7--|----4-7-----4-7|
 |------4-------4|------4--------|---------------|

 |---------------|
 |4-4-----4-4----|
 |----4-7-----4-6|
 |---------------|

 |------7-9-9-9-9-9|9------------------|
 |--7-9------------|--------5-7-----5-7|
 |7----------------|--5-5-7-----5-7----|
 |-----------------|-------------------|

 |------7-9-9-9-9-9|9------------------|
 |--7-9------------|--------5-7-----5-7|
 |7----------------|--5-5-7-----5-7----|
 |-----------------|-------------------|

 |---------------|---------------|
 |---------------|4-4-----4-4----|
 |4-4-----4-4----|----4-7-----4-6|
 |----4-7-----4-7|---------------|

 |------7-9-9-9-9-9|9-------|
 |--7-9------------|--------|
 |7----------------|---5----|
 |-----------------|-----7-7|

(Outro)
 |-----|---|--|-----------------|--|
 |-----|---|--|-----------------|--|
 |--4-5|--4|5-|--4-5---2--------|--|
 |0----|0--|--|0-----5---5-3-5-3|0-|

Thanks, please rate it after you learn it.
_TheBassist01_
Comments