Alice Cooper - I Got A Line On You Chords & Tabs

 

I Got A Line On You Chords & Tabs

Alice Cooper Chords & Tabs

Version: 1 Type: Bass Tab 0 ratings
1 star 2 stars 3 stars 4 stars 5 stars
comments

I Got A Line On You Bass Tab

I got a line on you by Alice Cooper
Standard Tuning

G:-----------------------------------|
D:-----------------------------------|  x6 
A:0-0-0-0-3-5--0-0-0-5-3-------------|       
E:-----------------------------------| \           
                                        \__x2
G:------------------------------------| /    
D:------------------------------------|/    
A:------------------------------------| 
E:1~---3~---5~---1~---3~---5-3-5------|

(During Solo)
G:-----------------------------------------------------|
D:0-0-0-0-3-5--0-0-0-5-3--0-0-0-0-3-5--0-0-0-5-3-------|  x2
A:-----------------------------------------------5-3---|
E:-----------------------------------------------------|

G:--------------------------------|
D:0-0-3-0-3-5--0-0-3-0--5p4p3-----|
A:----------------------------5p3-|
E:--------------------------------|
[ Tab from: http://www.guitartabs.cc/tabs/a/alice_cooper/i_got_a_line_on_you_btab.html ]
G:--------------------|
D:0-0-3-0-3-5---------|
A:------------3 / ----|
E:--------------------|

G:------------------------------------|
D:------------------------------------| x4
A:------------------------------------|
E:1-1-1-1--3-3-3-3--5-5-5-5-5-5-5--3--|

G:-------------------------|
D:-------------------------|  x4
A:0-0-0-0-3-5--0-0-0-5-3---|
E:-------------------------|

G:---------------------------------|
D:---------------------------------|  x2
A:---------------------------------|
E:1~---3~---5~---1~---3~---5-3-5---|

G:-------------------------|
D:-------------------------|  x1
A:0-0-0-0-3-5--0-0-0-5-3---|
E:-------------------------|

G:---------------------------------|
D:---------------------------------|  x1
A:---------------------------------|
E:1~---3~---5~---1~---3~---5-3-5---|

Thanks, please rate after you learn it.
Tabbed by:
_TheBassist01_
Comments