Alice Cooper - Feed My Frankenstein Chords & Tabs

 

Feed My Frankenstein Chords & Tabs

Alice Cooper Chords & Tabs

Version: 1 Type: Bass Tab 0 ratings
1 star 2 stars 3 stars 4 stars 5 stars
comments

Feed My Frankenstein Bass Tab

Feed My Frankenstein - Alice Cooper
Standard Tuning

(Intro)
G:----------------------|-------------------------|
D:----5------------7-5-7|----5-----------------5--|  x2
A:5-8---8-5--5-5-8------|5-8---8-5--5558-58-58---8|
E:----------------------|-------------------------|

(Verse)
G:----------------------|
D:----------------------|  x10
A:5-5-5--5-5--5-5-5--5-5|
E:----------------------|

G:---------------------------------------------------------|
D:---------------------------------------------------------|
A:0-0-3-0-0-3-0-3-0-0-3------3--0-0-3-0-0-3-0-3-0-1-2-3-4-5|
E:----------------------3-33-------------------------------|

(Chorus)
G:----------------------|-------------------------|
D:----5------------7-5-7|----5-----------------5--|  x2
A:5-8---8-5--5-5-8------|5-8---8-5--5558-58-58---8|
E:----------------------|-------------------------|


(Verse)
G:----------------------|
D:----------------------|  x8
A:5-5-5--5-5--5-5-5--5-5|
E:----------------------|
[ Tab from: http://www.guitartabs.cc/tabs/a/alice_cooper/feed_my_frankenstein_btab.html ]
G:---------------------------------------------------------|
D:---------------------------------------------------------|
A:0-0-3-0-0-3-0-3-0-0-3------3--0-0-3-0-0-3-0-3-0-1-2-3-4-5|
E:----------------------3-33-------------------------------|

(Chorus)
G:----------------------|-------------------------|
D:----5------------7-5-7|----5-----------------5--|  x4
A:5-8---8-5--5-5-8------|5-8---8-5--5558-58-58---8|
E:----------------------|-------------------------|


G:----------------------|
D:----------------------|  x8
A:5-5-5--5-5--5-5-5--5-5|
E:----------------------|

(During Solo)
G:---------------------------------|
D:---------------------------------|
A:---------------------------------|
E:3-3-6--3-3-6-3-6--3-3-6-3-1-1-1-6|

G:----------------------------------|
D:----------------------------------|
A:----------------------------------|
E:3-3-6--3-3-6-3-6--3--4--5--6--7--8|

G:---------------------------------------|
D:---------------------------------------|  x2
A:-----8--------------10-8-10------8-----|
E:8-11---11-8--8-8-11---------8-11---11-8|

(Chorus)
G:----------------------|-------------------------|
D:----5------------7-5-7|----5-----------------5--|  x8
A:5-8---8-5--5-5-8------|5-8---8-5--5558-58-58---8|
E:----------------------|-------------------------|


Thanks, Please rate after you learn it.
Tabbed by:
_TheBassist01_
Comments