Alice Cooper - Dirty Dreams Chords & Tabs

 

Dirty Dreams Chords & Tabs

Alice Cooper Chords & Tabs

Version: 1 Type: Bass Tab 0 ratings
1 star 2 stars 3 stars 4 stars 5 stars
comments

Dirty Dreams Bass Tab

   
Dirty Dreams by Alice Cooper
Standard Tuning

(Intro)
G:-----------|      |----------------|
D:5-5-5------|--x2  |7-7-7------7-7--|
A:------5-5-5|      |------7(9)-----9|
E:-----------|      |----------------|

G:-----------|      |-----------|
D:-----------|--x7  |-----------|
A:-------2(8)|      |------2(12)|
E:0(8)-------|      |5(12)------|

G:-----------|      |-----------|
D:-----------|--x4  |-----------|
A:-------2(8)|      |------2(12)|
E:0(8)-------|      |5(12)------|

(Chorus)
G:---------------------------------|
D:---------------------------------|
A:5-7-7-------------5-7-7----------|
E:------5-5-5-7-3-0-------5-5-5-7-3|

G:------------------------|
D:------------------------|
A:5-7-7------------5------|
E:------5-5-7-3-0-----5--7|

G:-----------|
D:-----------|
A:-----------|
E:5(12)-7(12)|

G:-----------|      
D:-----------|  x5  
A:-------2(8)|      
E:0(8)-------|  
[ Tab from: http://www.guitartabs.cc/tabs/a/alice_cooper/dirty_dreams_btab.html ]
G:---------------------------------|
D:---------------------------------|
A:5-7-7-------------5-7-7----------|
E:------5-5-5-7-3-0-------5-5-5-7-3|

G:---------------------------------|
D:---------------------------------|
A:5-7-7------------5--------5------|
E:------5-5-7-3-0-----5--7-----5--7|
    
(During Solo)
G:---------------------------------|
D:5-7-7-------------5-7-7----------|  x4
A:------5-5-5-7-3-0-------5-5-5-7-3|
E:---------------------------------|

G:-----------|      |----------------|
D:5-5-5------|--x2  |7-7-7------7-7--|
A:------5-5-5|      |------7(9)-----9|
E:-----------|      |----------------|

G:-----------| 
D:-----------|   
A:-------2(8)|  
E:0(8)-------|

G:---------------------------------|
D:---------------------------------|  x3
A:5-7-7-------------5-7-7----------|
E:------5-5-5-7-3-0-------5-5-5-7-3|

G:------------------------|
D:------------------------|
A:5-7-7------------5------|
E:------5-5-7-3-0-----5--7|

(Outro)
G:------------------------|
D:------------------------|
A:5--------5--------5-----|
E:---5--7-----5--7-----5--|

Thanks, please rate it after you learn it.
Tabbed by:
_TheBassist01_
Comments