Alice Cooper - Billion Dollar Babies Chords & Tabs

 

Billion Dollar Babies Chords & Tabs

Alice Cooper Chords & Tabs

Version: 1 Type: Bass Tab

Billion Dollar Babies Bass Tab

Billion Dollar Babies Bass Tabs


Intro
G|-------|-------|-----------------------------|---------|
D|-------|-------|-----------------------------|---------|
A|-----0-|-0-3-0-|-0-0-----0-2/3-2-0-----------|---0-----|
E|-3-4---|-------|-----3-1-----------1-1-1-0-1-|-3---3-1-|

Verse
G-----------|---------------------------|---------|
D-----------|---------------------------|---------|
A-0-0-----0-|-2/3-2-0-----------|-------|---0-----| x2
E-----3-1---|---------1-1-1-0-1-|-1h3p1-|-3---3-1-|
						  

			                |-----------|
			                |-----------|replace above bar with
                                        |---0---0/8-|this bar on last run
                                        |-3---3-----|through
[ Tab from: http://www.guitartabs.cc/tabs/a/alice_cooper/billion_dollar_babies_btab.html ]
Chorus
G-----------|---------------|-----------|-------------|
D-----------|---0/7-0h2-----|-----------|---0/7-------|
A---0/7-0/7-|-0---------2h3-|---0/7-0/7-|-0-----7-5-3-| x2
E-0---------|---------------|-0---------|-------------|

					|---|
					|---|
					|---|replace on last run through
					|-1-|
After Chorus/ Intro
G-----------------0-2-|-------|-2/12t-|
D-----------0-2-3-----|-------|-------|
A-----0-2-3-----------|-----0-|-------|
E-1-3-----------------|-3-4---|-------|

Solo + Verse 2: Verse x4

Chorus

After Chorus/ Intro
G-----------|-------------------|-----------------|
D-----------|-------------------|-----------0-2-3-|
A-0-0-----0-|-2/3-2-0-----------|-----0-2-3-------| x12
E-----3-1---|---------1-1-1-0-1-|-1-3-------------|
				Some of the bars at the end
				of the song have either the
				above or below bar
				|-2/12t-|
				|-------|
				|-------|
				|-------|

Outro
G-----|
D---3-|
A-----| x6
E-1---|