Alice Cooper - Bed Of Nails Chords & Tabs

 

Bed Of Nails Chords & Tabs

Alice Cooper Chords & Tabs

Version: 1 Type: Tab 0 ratings
1 star 2 stars 3 stars 4 stars 5 stars
comments

Bed Of Nails Tab

Tabber Tuomo Pirinen (Freedam)

"Bed of Nails" solo
from album "Trash" (1989)

       b= bend up   AH= artificial harmonic   rb= release bend

         .= mute note    TP= finger tap   \= slide down
          
                    h= hammer on     p= pull-off         

Solo
  
e-|-----------------------------------------AH---------------------------------|
b-|-21b-----21b----18--21-------------------21---18----------------------------|
g-|------------------------20b-rb--20b-20b------------21--20--18--20b-rb--p18--|
d-|----------------------------------------------------------------------------|
a-|----------------------------------------------------------------------------|
E-|----------------------------------------------------------------------------|
[ Tab from: http://www.guitartabs.cc/tabs/a/alice_cooper/bed_of_nails_tab.html ]
e-|-------------------------18-------------18-------------TP-----TP------------|
b-|----------------------------21p18----------21p18-------23p18--23--21p18-----|
g-|-20-18------------20b--------------20b-----------20b------------------------|
d-|-----------20\\-------------------------------------------------------------|
a-|----------------------------------------------------------------------------|
E-|----------------------------------------------------------------------------|

e-|------21b-------------------------------------------------------------------|
b-|------------18-------18h21p18-------18h21p18------18h21p18------18-21p18-18-|
g-|-20b------------21--------------21------------21-------------21-------------|
d-|----------------------------------------------------------------------------|
a-|----------------------------------------------------------------------------|
E-|----------------------------------------------------------------------------|

e-|--------------------------------------|
b-|---------------21b------21b---\-------|
g-|-21---20---19-------------------------|
d-|--------------------------------------|
a-|--------------------------------------|
E-|--------------------------------------|
  |
  |Guitar two trought out solo
  |
e-|---------------|
b-|---------------|
g-|----------6----|
d-|----------6----|
a-|-.-.-.-.-------|
E-|-6-6-6-6-------|
Comments