Alexisonfire - Sharks And Danger Chords & Tabs

 

Sharks And Danger Chords & Tabs

Alexisonfire Chords & Tabs

Version: 1 Type: Tab 0 ratings
1 star 2 stars 3 stars 4 stars 5 stars
comments

Sharks And Danger Tab

   
#----------------------------------PLEASE NOTE---------------------------------#
#This file is the author's own work and represents their interpretation of the #
#song. You may only use this file for private study, scholarship, or research. #
#------------------------------------------------------------------------------#

SHARKS AND DANGER
As recorded by Alexisonfire
(From the 2004 Album WATCH OUT!)

Transcribed by Cordarro Collins
	

Words and Music by Alexisonfire
Arranged by Alexisonfire

Gtr I (Eb Ab Db Gb Bb Eb) - 'Untitled'
Gtr II (Eb Ab Db Gb Bb Eb) - 'Untitled'
Gtr III (Eb Ab Db Gb Bb Eb) - 'Untitled'
Gtr IV (Eb Ab Db Gb Bb Eb) - 'Untitled'
Gtr V (Eb Ab Db Gb Bb Eb) - 'Untitled'
Gtr VI (Eb Ab Db Gb Bb Eb) - 'Untitled'

   Intro
    Q=152
    N.C.(B5)
   3/4
    Gtr I
    Q  E Q  E   E E E Q  E   Q  E Q  E   H.
||------------|------------|-----------|-------------|
||o-----------|------------|-----------|-------------|
||------------|------------|-----------|-------------|
||-------9----|-------9----|-7----9----|-9-----------|
||o----9----9-|-----9----9-|----9----9-|-------------|
||--7---------|-3-5--------|-----------|-------------|
|
|   Gtr II
|   Q  E Q  E   Q   E Q  E   Q  E Q  E   Q   E Q  E
||------------|------------|-----------|-------------|
||o------0----|-------0----|------0----|-------0-----|
||-----6----6-|-----6----6-|----7----7-|-----7----7--|
||--4---------|-4----------|-5---------|-5-----------|
||o-----------|------------|-----------|-------------|
||------------|------------|-----------|-------------|


                                 D/G
  Q   E  Q  E   Q   E  Q     E    H.                +H.             4x
|-------------|----------------|------------------|-----------------||
|-------------|----------------|-^7---------------|-(7)------------o||
|-------------|----------------|-^7---------------|-(7)-------------||
|--------9----|--------9-------|-^7---------------|-(7)-------------||
|-----9-----9-|-----9--------9-|-^5---------------|-(5)------------o||
|-7-----------|-5--------------|-^3---------------|-(3)-------------||
|
| Q   H         Q   Q      Q      Q     Q     Q      E   E  E Q.    4x
|-------------|----------------|------------------|-----------------||
|-------------|----------------|------------------|-12-----12-8\---o||
|-----6-------|-----7----/11---|-11---(11)--(11)--|-----11----------||
|-4--(4)------|-5--(5)---------|------------------|-----------------||
|-------------|----------------|------------------|----------------o||
|-------------|----------------|------------------|-----------------||


 Pre-Verse
  B5
    H.                 +H.
|-------------------|-------------------|
|-------------------|-------------------|
|-^11---------------|-(11)--------------|
|-^-9---------------|--(9)--------------|
|-^-9---------------|--(9)--------------|
|-^-7---------------|--(7)--------------|
|
|         >
|   Q     Q     Q       Q     Q     Q
|-------------------|-------------------|
|-------------------|-------------------|
|-^11---(11)--(11)--|-(11)--(11)--(11)--|
|-^-9----(9)---(9)--|--(9)---(9)---(9)--|
|-^-9----(9)---(9)--|--(9)---(9)---(9)--|
|-^-7----(7)---(7)--|--(7)---(7)---(7)--|


                          N.C.
   +H.                      E   E   E   E   Q
|-----------------------|-----------------------|
|-----------------------|-----------------------|
|-(11)------------------|-----------------------|
|--(9)------------------|--11h=12p=11-------9---|
|--(9)------------------|--------------12-------|
|--(7)------------------|-----------------------|
|
|         <
|   Q     Q     E    E     +Q       Q       Q
|-----------------------|-----------------------|
|-----------------------|-----------------------|
|-(11)--(11)--(11)-(11)-|-(11)----(11)----(11)--|
|--(9)------------------|-----------------------|
|--(9)------------------|-----------------------|
|--(7)------------------|-----------------------|


  D5/G
    H.                 +H.                 +H.            +H.
|-------------------|-------------------|---------------|-------------|
|-------------------|-------------------|---------------|-------------|
|-------------------|-------------------|---------------|-------------|
|-^-7---------------|--(7)--------------|--(7)----------|-(7)---------|
|-^-5---------------|--(5)--------------|--(5)----------|-(5)---------|
|-^-3---------------|--(3)--------------|--(3)----------|-(3)---------|
|
|         >
|   Q     Q     Q       Q     Q     Q       Q    Q   Q     Q   Q  Q
|-------------------|-------------------|---------------|-------------|
|-^10---(10)--(10)--|-(10)--(10)--(10)--|-(10)--10--10--|-10---8--8\--|
|-^-9----(9)---(9)--|--(9)---(9)---(9)--|--(9)----------|-------------|
|-^-7----(7)---(7)--|--(7)---(7)---(7)--|--(7)----------|-------------|
|-------------------|-------------------|---------------|-------------|
|-------------------|-------------------|---------------|-------------|


  B5                                                      N.C.
    H.                 +H.                 +H.             E  E  E  E  Q
|-------------------|-------------------|---------------|-----------------|
|-------------------|-------------------|---------------|-----------------|
|-^11---------------|-(11)--------------|-(11)----------|-----------------|
|-^-9---------------|--(9)--------------|--(9)----------|-11h12p11-----9--|
|-^-9---------------|--(9)--------------|--(9)----------|----------12-----|
|-^-7---------------|--(7)--------------|--(7)----------|-----------------|
|
|         >
|   Q     Q     Q       Q     Q     Q       Q    Q   Q     E  Q     Q.
|-------------------|-------------------|---------------|-----------------|
|-------------------|-------------------|---------------|-----------------|
|-^11---(11)--(11)--|-(11)--(11)--(11)--|-(11)--11--11--|-11-11----11-----|
|-^-9----(9)---(9)--|--(9)---(9)---(9)--|--(9)----------|-----------------|
|-^-9----(9)---(9)--|--(9)---(9)---(9)--|--(9)----------|-----------------|
|-^-7----(7)---(7)--|--(7)---(7)---(7)--|--(7)----------|-----------------|


  D5/G
    H.                 +H.                 +H.              +H.
|-------------------|-------------------|-----------------|-------------|
|-------------------|-------------------|-----------------|-------------|
|-------------------|-------------------|-----------------|-------------|
|-^-7---------------|--(7)--------------|--(7)------------|-(7)---------|
|-^-5---------------|--(5)--------------|--(5)------------|-(5)---------|
|-^-3---------------|--(3)--------------|--(3)------------|-(3)---------|
|
|         >
|   Q     Q     Q       Q     Q     Q       Q     Q.    E    Q   Q  Q
|-------------------|-------------------|-----------------|-------------|
|-^10---(10)--(10)--|-(10)--(10)--(10)--|-(10)--(10)---10-|-10---8--7\--|
|-^-9----(9)---(9)--|--(9)---(9)---(9)--|--(9)---(9)------|-------------|
|-^-7----(7)---(7)--|--(7)---(7)---(7)--|--(7)---(7)------|-------------|
|-------------------|-------------------|-----------------|-------------|
|-------------------|-------------------|-----------------|-------------|


 Verse
  B5       F#m/B B5   A5
  Gtr V
   PM------------------------------------
   E  E  E  E  E  E    E  E  E  E  E  E
|-------------------|-------------------|
|-------------------|-------------------|
|-------------------|-------------------|
|-----------7--7----|-----------7--7----|
|--9--9--9--9--9--9-|--7--7--7--7--7--7-|
|--7--7--7--7--7--7-|--5--5--5--5--5--5-|
|
| Gtr VI
|  PM------------------------------------
|  E  E  E  E  E  E    E  E  E  E  E  E
|-------------------|-------------------|
|-------------------|-------------------|
|-11-11-11-11-11-11-|-11-11-11-11-11-11-|
|--9--9--9--9--9--9-|--9--9--9--9--9--9-|
|-------------------|-------------------|
|-------------------|-------------------|


  G5       D5/G  G5   D5/G5    D5/G  G5
 ------------------------------------|
   E  E  E  E  E  E    E  E  E  E  E  E
|-------------------|-------------------|
|-------------------|-------------------|
|-------------------|-------------------|
|-----------7--7----|--7--------7--7----|
|--5--5--5--5--5--5-|--5--5--5--5--5--5-|
|--3--3--3--3--3--3-|--3--3--3--3--3--3-|
|
|------------------------------------|
|  E  E  E  E  E  E    E  E  E  E  E  E
|-------------------|-------------------|
|-------------------|-------------------|
|-14-14-14-14-14-14-|-14-14-14-14-14-14-|
|-12-12-12-12-12-12-|-12-12-12-12-12-12-|
|-------------------|-------------------|
|-------------------|-------------------|


  B5    F#m/B B5  A5              G5    D5/G  G5  D/GG5D/GG5D/GG5
  PM-----------------------------------------------------------|
  E E E  E  E E   E E E  E  E E   E E E  E  E E    E E  E E  E E
|---------------|---------------|---------------|----------------|
|---------------|---------------|---------------|----------------|
|---------------|---------------|---------------|----------------|
|--------7--7---|--------7--7---|--------7--7---|--4----4----4---|
|-9-9-9--9--9-9-|-7-7-7--7--7-7-|-5-5-5--5--5-5-|--5-5--5-5--5-5-|
|-7-7-7--7--7-7-|-5-5-5--5--5-5-|-3-3-3--3--3-3-|--3-3--3-3--3-3-|
|
| PM-----------------------------------------------------------|
| E E E  E  E E   E E E  E  E E   E E E  E  E E    E E  E E  E E
|---------------|---------------|---------------|----------------|
|---------------|---------------|---------------|----------------|
|-------11-11---|-------11-11---|-------14-14---|-14---14---14---|
|-0-0-0--0--0-0-|-0-0-0--0--0-0-|-0-0-0--0--0-0-|--0-0--0-0--0-0-|
|---------------|---------------|---------------|----------------|
|---------------|---------------|---------------|----------------|


  B5    F#m/B B5  A5              G5    D5/G  G5  D5G5D5G5 D5/G
  PM----------------------------------------------------------|
  E E E  E  E E   E E E  E  E E   E E E  E  E E   E E E  E  E E
|---------------|---------------|---------------|---------------|
|---------------|---------------|---------------|---------------|
|---------------|---------------|---------------|---------------|
|--------7--7---|--------7--7---|--------7--7---|-7---7-----7-7-|
|-9-9-9--9--9-9-|-7-7-7--7--7-7-|-5-5-5--5--5-5-|-5-5-5--5--5-5-|
|-7-7-7--7--7-7-|-5-5-5--5--5-5-|-3-3-3--3--3-3-|-3-3-3--3--3-3-|
|
| PM----------------------------------------------------------|
| E E E  E  E E   E E E  E  E E   E E E  E  E E   E E E  E  E E
|---------------|---------------|---------------|---------------|
|---------------|---------------|---------------|---------------|
|-------11-11---|-------11-11---|-------14-14---|-------14-14---|
|-0-0-0--0--0-0-|-0-0-0--0--0-0-|-0-0-0--0--0-0-|-0-0-0--0--0-0-|
|---------------|---------------|---------------|---------------|
|---------------|---------------|---------------|---------------|


  B5    F#m/B B5  A5              G5       D/G  G5   N.C.
  PM----------------------------------------------------------------|
  E E E  E  E E   E E E  E  E E    E  E  E  E E  E    E  E  E  E  E E
|---------------|---------------|------------------|------------------|
|---------------|---------------|------------------|------------------|
|---------------|---------------|------------------|------------------|
|--------7--7---|--------7--7---|-----------4-4----|--4-----4-----4---|
|-9-9-9--9--9-9-|-7-7-7--7--7-7-|--5--5--5--5-5--5-|-----5-----5----5-|
|-7-7-7--7--7-7-|-5-5-5--5--5-5-|--3--3--3--3-3--3-|------------------|
|
|                                                             Gtr II
| PM-------------------------------------------------------|
| E E E  E  E E   E E E  E  E E    E  E  E  Q    E    E  E  E  Q.
|---------------|---------------|------------------|------------------|
|---------------|---------------|------------------|------------------|
|-------11-11---|-------11-11---|----------14------|----------14\-----|
|-0-0-0--0--0-0-|-0-0-0--0--0-0-|-12-12-12------12-|-12-12-12---------|
|---------------|---------------|------------------|------------------|
|---------------|---------------|------------------|------------------|


 Interlude
  N.C.(B5)
  Gtr I
  Q   E   Q    E    Q   E   Q    E    Q   E   Q    E    Q   E   Q    E
|-----------------|-----------------|-----------------|-----------------|
|-----------------|-----------------|-----------------|-----------------|
|-----------------|-----------------|-----------------|-----------------|
|---------9---(9)-|---------9---(9)-|---------9---(9)-|---------9---(9)-|
|-----9-----------|-----9-----------|-----9-----------|-----9-----------|
|-7---------------|-7---------------|-7---------------|-7---------------|
|
| Gtr II
| Q   E   Q    E    Q   E   Q    E    Q   E   Q    E    Q   E   Q    E
|-----------------|-----------------|-----------------|-----------------|
|-----------------|-----------------|-----------------|-----------------|
|--------11--(11)-|--------11--(11)-|--------11--(11)-|--------11--(11)-|
|-9--(9)----------|-9--(9)----------|-9--(9)----------|-9--(9)----------|
|-----------------|-----------------|-----------------|-----------------|
|-----------------|-----------------|-----------------|-----------------|


   Q    E   Q    E     Q    E   Q    E
|-------------------|-------------------|
|-------------------|-------------------|
|-------------------|-------------------|
|-----------9---(9)-|-----------9---(9)-|
|-------9-----------|-------9-----------|
|--7----------------|--7----------------|
|
|  Q    E   Q    E     Q    E   Q    E
|-------------------|-------------------|
|-------------------|-------------------|
|----------14--(14)-|----------14--(14)-|
|-12--(12)----------|-12--(12)----------|
|-------------------|-------------------|
|-------------------|-------------------|


   Q    E   Q    E     Q    E   Q    E
|-------------------|-------------------|
|-------------------|-------------------|
|-------------------|-------------------|
|-----------9---(9)-|-----------9---(9)-|
|-------9-----------|-------9-----------|
|--7----------------|--7----------------|
|
|  Q    E   Q    E     Q    E   Q    E
|-------------------|-------------------|
|-------------------|-------------------|
|----------14--(14)-|----------14--(14)-|
|-12--(12)----------|-12--(12)----------|
|-------------------|-------------------|
|-------------------|-------------------|


  Q   E   Q    E    Q   E   Q    E    Q   E   Q    E    Q   E   Q    E
|-----------------|-----------------|-----------------|-----------------|
|-----------------|-----------------|-----------------|-----------------|
|-----------------|-----------------|-----------------|-----------------|
|---------9---(9)-|---------9---(9)-|---------9---(9)-|---------9---(9)-|
|-----9-----------|-----9-----------|-----9-----------|-----9-----------|
|-7---------------|-7---------------|-7---------------|-7---------------|
|
| Q   E   Q    E    Q   E   Q    E    Q   E   Q    E    Q   E   Q    E
|-----------------|-----------------|-----------------|-----------------|
|-----------------|-----------------|-----------------|-----------------|
|--------11--(11)-|--------11--(11)-|--------11--(11)-|--------11--(11)-|
|-9--(9)----------|-9--(9)----------|-9--(9)----------|-9--(9)----------|
|-----------------|-----------------|-----------------|-----------------|
|-----------------|-----------------|-----------------|-----------------|


   Q    E   Q    E     Q    E   Q    E
|-------------------|-------------------|
|-------------------|-------------------|
|-------------------|-------------------|
|-----------9---(9)-|-----------9---(9)-|
|-------9-----------|-------9-----------|
|--7----------------|--7----------------|
|
|  Q    E   Q    E     Q    E   Q    E
|-------------------|-------------------|
|-------------------|-------------------|
|----------14--(14)-|----------14--(14)-|
|-12--(12)----------|-12--(12)----------|
|-------------------|-------------------|
|-------------------|-------------------|


   Q    E   Q    E     Q    E   Q    E
|-------------------|-------------------|
|-------------------|-------------------|
|-----------7---(7)-|-----------7---(7)-|
|-------------------|-------------------|
|-------9-----------|-------9-----------|
|--7----------------|--7----------------|
|
|  Q    E   Q    E     Q    E   Q    E
|-------------------|-------------------|
|-------------------|-------------------|
|----------14--(14)-|----------14--(14)-|
|-12--(12)----------|-12--(12)----------|
|-------------------|-------------------|
|-------------------|-------------------|


    N.C.(Esus2)                         N.C.(B5)
    Q   E   Q    E    Q   E   Q    E    Q   E   Q    E    Q   E   Q    E
||------------------|-----------------|-----------------|-----------------|
||o-----------------|-----------------|-----------------|-----------------|
||----------9---(9)-|---------9---(9)-|--------11--(11)-|--------11--(11)-|
||------------------|-----------------|-----------------|-----------------|
||o-----9-----------|-----9-----------|-----9-----------|-----9-----------|
||--7---------------|-7---------------|-7---------------|-7---------------|
|
|   Q   E   Q    E    Q   E   Q    E    Q   E   Q    E    Q   E   Q    E
||------------------|-----------------|-----------------|-----------------|
||o-----------------|-----------------|-----------------|-----------------|
||---------11--(11)-|--------11--(11)-|--------11--(11)-|--------11--(11)-|
||--9--(9)----------|-9--(9)----------|-9--(9)----------|-9--(9)----------|
||o-----------------|-----------------|-----------------|-----------------|
||------------------|-----------------|-----------------|-----------------|


   Q    E   Q    E     Q    E   Q    E
|-------------------|-------------------|
|-------------------|-------------------|
|-------------------|-------------------|
|-----------9---(9)-|-----------9---(9)-|
|-------9-----------|-------9-----------|
|--7----------------|--7----------------|
|
|  Q    E   Q    E     Q    E   Q    E
|-------------------|-------------------|
|-------------------|-------------------|
|----------14--(14)-|----------14--(14)-|
|-12--(12)----------|-12--(12)----------|
|-------------------|-------------------|
|-------------------|-------------------|


   Q    E   Q    E     Q    E   Q    E
|-------------------|--------------------||
|-------------------|-------------------o||
|-------------------|--------------------||
|-----------9---(9)-|-----------9---(9)--||
|-------9-----------|-------9-----------o||
|--7----------------|--7-----------------||
|
|  Q    E   Q    E     Q    E   Q    E
|-------------------|--------------------||
|-------------------|-------------------o||
|----------14--(14)-|----------14--(14)--||
|-12--(12)----------|-12--(12)-----------||
|-------------------|-------------------o||
|-------------------|--------------------||

[ Tab from: http://www.guitartabs.cc/tabs/a/alexisonfire/sharks_and_danger_tab.html ]
   Build-Up
    N.C.(B5)
    Q    E   Q     E    Q    E  Q    E    Q    E   Q     E    Q    E  Q    E
||--------------------|-----------------|-------------------|-----------------|
||o-------------------|-----------------|-------------------|-----------------|
||--------------------|-----------------|-------------------|-----------------|
||-----------9----(9)-|---------9---(9)-|----------9----(9)-|---------9---(9)-|
||o------9------------|------9----------|------9------------|------9----------|
||--7-----------------|-7---------------|-7-----------------|-7---------------|
|
|   E  Q     Q     E    E  E E  E E  E    E  Q     Q     E    E  E E  E E  E
||--------------------|-----------------|-------------------|-----------------|
||o-------------------|-----------------|-------------------|-----------------|
||----11---(11)--(11)-|---11---11---11--|---11---(11)--(11)-|---11---11---11--|
||--9-----------------|-9----9----9-----|-9-----------------|-9----9----9-----|
||o-------------------|-----------------|-------------------|-----------------|
||--------------------|-----------------|-------------------|-----------------|


   Q    E   Q     E     Q     E  Q     E
|--------------------|--------------------|
|--------------------|--------------------|
|--------------------|--------------------|
|-----------9----(9)-|-----------9----(9)-|
|-------9------------|--------9-----------|
|--7-----------------|--7-----------------|
|
|  E  Q     Q     E     E  E  E  E  E  E
|--------------------|--------------------|
|--------------------|--------------------|
|----14---(14)--(14)-|----14----14----14--|
|-12-----------------|-12----12----12-----|
|--------------------|--------------------|
|--------------------|--------------------|


   Q    E   Q     E     Q     E  Q     E   4x
|--------------------|---------------------||
|--------------------|--------------------o||
|--------------------|---------------------||
|-----------9----(9)-|-----------9----(9)--||
|-------9------------|--------9-----------o||
|--7-----------------|--7------------------||
|
|  E  Q     Q     E     E  E  E  E  E  E   4x
|--------------------|---------------------||
|--------------------|--------------------o||
|----14---(14)--(14)-|----14----14----14---||
|-12-----------------|-12----12----12------||
|--------------------|--------------------o||
|--------------------|---------------------||


  N.C.
   H.                 +H.                 +H.         +H.
|------------------|-------------------|-----------|---------|
|------------------|-------------------|-----------|---------|
|------------------|-------------------|-----------|---------|
|------------------|-------------------|-----------|---------|
|------------------|-------------------|-----------|---------|
|--7---------------|--(7)--------------|--(7)------|--(7)----|
|
|        >
|  Q     Q     Q       Q     Q     Q      +H.         +H.
|------------------|-------------------|-----------|---------|
|------------------|-------------------|-----------|---------|
|-11---(11)--(11)--|-(11)--(11)--(11)--|-(11)------|-(11)----|
|------------------|-------------------|-----------|---------|
|------------------|-------------------|-----------|---------|
|------------------|-------------------|-----------|---------|


   Verse
    Q=160
    B5    N.C.        B5    N.C.        B5    N.C.        B5    N.C.
    Gtr III
    Q  E    E  Q      Q  E    E  Q      Q  E    E  Q      Q  E    E  Q
||------------------|-----------------|-----------------|-----------------|
||o-----------------|-----------------|-----------------|-----------------|
||--------/14-14\---|-------/14-14\---|-------/14-14\---|-------/14-14\---|
||--9--9\--/x--x\---|-9--9\--/x--x\---|-9--9\--/x--x\---|-9--9\--/x--x\---|
||o-9--9\-/12-12\---|-9--9\-/12-12\---|-9--9\-/12-12\---|-9--9\-/12-12\---|
||--7--7\-----------|-7--7\-----------|-7--7\-----------|-7--7\-----------|
|
|   Gtr IV
|   Q  E    E  E  E   Q  E    E  E  E   Q  E    E  E  E   Q  E    E  E  E
||------------------|-----------------|-----------------|-----------------|
||o-----------------|-----------------|-----------------|-----------------|
||------------------|-----------------|-----------------|-----------------|
||--9--9\---x--x--x-|-9--9\---x--x--x-|-9--9\---x--x--x-|-9--9\---x--x--x-|
||o-9--9\---x--x--x-|-9--9\---x--x--x-|-9--9\---x--x--x-|-9--9\---x--x--x-|
||--7--7\---x--x--x-|-7--7\---x--x--x-|-7--7\---x--x--x-|-7--7\---x--x--x-|


  G5
  E E E E E E    E E E E E E    E E E E E E    E E E E E E   4x
|--------------|--------------|--------------|---------------||
|--------------|--------------|--------------|--------------o||
|--------------|--------------|--------------|---------------||
|-----5p4-0-4\-|---7-5-4h5p4\-|-----5p4-0-4\-|---7-5-4h5p4\--||
|--------------|--------------|--------------|--------------o||
|-3-3----------|-3------------|-3-3----------|-3-------------||
|
| E E H          E E H          E E H          E E H         4x
|--------------|--------------|--------------|---------------||
|--------------|--------------|--------------|--------------o||
|--------------|--------------|--------------|---------------||
|-5-5-5--------|-5-5-5--------|-5-5-5--------|-5-5-5---------||
|-5-5-5--------|-5-5-5--------|-5-5-5--------|-5-5-5--------o||
|-3-3-3--------|-3-3-3--------|-3-3-3--------|-3-3-3---------||


 Chorus
  B5
   Q    Q   Q     H.         Q    Q   Q     H.
|--------------|-17-------|--------------|-17-----|
|-14---15------|----------|-14---15------|--------|
|----------14--|----------|----------14--|--------|
|--------------|----------|--------------|--------|
|--------------|----------|--------------|--------|
|--------------|----------|--------------|--------|
|
|  H.             H.         H.             H.
|--------------|----------|--------------|--------|
|--------------|----------|--------------|--------|
|--------------|----------|--------------|--------|
|--9-----------|--9-------|--9-----------|--9-----|
|--9-----------|--9-------|--9-----------|--9-----|
|--7-----------|--7-------|--7-----------|--7-----|


  G5
   Q    E  Q.      H.         Q    E  Q.      H.
|---------------|----------|---------------|--------|
|-14---15-17----|-17-------|-14---15-17----|-17-----|
|---------------|----------|---------------|--------|
|---------------|----------|---------------|--------|
|---------------|----------|---------------|--------|
|---------------|----------|---------------|--------|
|
|  H.              H.         H.              H.
|---------------|----------|---------------|--------|
|---------------|----------|---------------|--------|
|---------------|----------|---------------|--------|
|--5------------|--5-------|--5------------|--5-----|
|--5------------|--5-------|--5------------|--5-----|
|--3------------|--3-------|--3------------|--3-----|


  B5
   Q    Q   Q     H.         Q    Q   Q     H.
|--------------|-17-------|--------------|-17-----|
|-14---15------|----------|-14---15------|--------|
|----------14--|----------|----------14--|--------|
|--------------|----------|--------------|--------|
|--------------|----------|--------------|--------|
|--------------|----------|--------------|--------|
|
|  H.             H.         H.             H.
|--------------|----------|--------------|--------|
|--------------|----------|--------------|--------|
|--------------|----------|--------------|--------|
|--9-----------|--9-------|--9-----------|--9-----|
|--9-----------|--9-------|--9-----------|--9-----|
|--7-----------|--7-------|--7-----------|--7-----|


  G5
   Q    E  Q.      +H.         +H.         +H.
|---------------|-----------|-----------|---------|
|-14---15-17----|-(17)------|-(17)------|-(17)----|
|---------------|-----------|-----------|---------|
|---------------|-----------|-----------|---------|
|---------------|-----------|-----------|---------|
|---------------|-----------|-----------|---------|
|
|  H.               H.          H.          H.
|---------------|-----------|-----------|---------|
|---------------|-----------|-----------|---------|
|---------------|-----------|-----------|---------|
|--5------------|---5-------|---5-------|---5-----|
|--5------------|---5-------|---5-------|---5-----|
|--3------------|---3-------|---3-------|---3-----|


 Verse
  N.C.(Bm)                       G5
                               Gtr III
  H.             H.              E E E E E E   E E E E E E
|--------------|---------------|-------------|-------------|
|--------------|---------------|-------------|-------------|
|--------------|---------------|-------------|-------------|
|--------------|---------------|-5-5-5-5-5-5-|-5-5-5-5-5-5-|
|--------------|---------------|-5-5-5-5-5-5-|-5-5-5-5-5-5-|
|--------------|---------------|-3-3-3-3-3-3-|-3-3-3-3-3-3-|
|
| Gtr II                       Gtr IV
| Q   E Q   E    E  E E Q   E    E E E E E E   E E E E E E
|--------------|---------------|-------------|-------------|
|--------------|---------------|-------------|-------------|
|-------7--(7)-|--------7---7/-|-------------|-------------|
|-------9--(9)-|--------9--(9)-|-5-5-5-5-5-5-|-5-5-5-5-5-5-|
|-----9--------|------9--------|-5-5-5-5-5-5-|-5-5-5-5-5-5-|
|-7------------|-3--5----------|-3-3-3-3-3-3-|-3-3-3-3-3-3-|


    B5                  A5            G5
     E  E  E  E  E  E   E E E E E E   E E E E E E   E E E E E E  4x
||--------------------|-------------|-------------|--------------||
||o-------------------|-------------|-------------|-------------o||
||--11-11-11-11-11-11-|-9-9-9-9-9-9-|-7-7-7-7-7-7-|-7-7-7-7-7-7--||
||---9--9--9--9--9--9-|-7-7-7-7-7-7-|-5-5-5-5-5-5-|-5-5-5-5-5-5--||
||o--9--9--9--9--9--9-|-7-7-7-7-7-7-|-5-5-5-5-5-5-|-5-5-5-5-5-5-o||
||---7--7--7--7--7--7-|-5-5-5-5-5-5-|-3-3-3-3-3-3-|-3-3-3-3-3-3--||
|
|    E  E  E  E  E  E   E E E E E E   E E E E E E   E E E E E E  4x
||--------------------|-------------|-------------|--------------||
||o-------------------|-------------|-------------|-------------o||
||--------------------|-------------|-------------|--------------||
||---9--9--9--9--9--9-|-7-7-7-7-7-7-|-5-5-5-5-5-5-|-5-5-5-5-5-5--||
||o--9--9--9--9--9--9-|-7-7-7-7-7-7-|-5-5-5-5-5-5-|-5-5-5-5-5-5-o||
||---7--7--7--7--7--7-|-5-5-5-5-5-5-|-3-3-3-3-3-3-|-3-3-3-3-3-3--||


    B5               A5                G5
    E  E  E E  Q     E  E  E E  E  E   E  E  E E  Q     E  E  E E  E  E
||-----------------|-----------------|----------------|------------------||
||o----------------|-----------------|----------------|-----------------o||
||----14-14---14---|---14-14---14-16-|---14-14---14---|---14-14---14-16--||
||-----x--x----x---|----x--x----x--x-|----x--x----x---|----x--x----x--x--||
||o---12-12---12---|---12-12---12-14-|---12-12---12---|---12-12---12-14-o||
||--0-------0------|-0-------0-------|-0-------0------|-0-------0--------||
|
|   E  E  E E  E E   E  E  E E  E  E   E  E  E E  E E   E  E  E E  E  E
||-----------------|-----------------|----------------|------------------||
||o----------------|-----------------|----------------|-----------------o||
||-----------------|-----------------|----------------|------------------||
||--9--9--9-9--9-9-|-7--7--7-7--7--7-|-5--5--5-5--5-5-|-5--5--5-5--5--5--||
||o-9--9--9-9--9-9-|-7--7--7-7--7--7-|-5--5--5-5--5-5-|-5--5--5-5--5--5-o||
||--7--7--7-7--7-7-|-5--5--5-5--5--5-|-3--3--3-3--3-3-|-3--3--3-3--3--3--||


  B5                 A5                  G5
  E  E  E  E  E  E    E  E  E  E  E  E   E  E  E  E  E  E    E  E  E  E  E  E
|------------------|-------------------|------------------|-------------------|
|------------------|-------------------|------------------|-------------------|
|---14-14-14-14-14-|-14-14-14-14-14-14-|---14-14-14-14-14-|-14-14-14-14-14-14-|
|----x--x--x--x--x-|--x--x--x--x--x--x-|----x--x--x--x--x-|--x--x--x--x--x--x-|
|---12-12-12-12-12-|-12-12-12-12-12-12-|---12-12-12-12-12-|-12-12-12-12-12-12-|
|-0----------------|-------------------|-0----------------|-------------------|
|
| E  E  E  E  E  E    E  E  E  E  E  E   E  E  E  E  E  E    E  E  E  E  E  E
|------------------|-------------------|------------------|-------------------|
|------------------|-------------------|------------------|-------------------|
|------------------|-------------------|------------------|-------------------|
|-9--9--9--9--9--9-|--7--7--7--7--7--7-|-5--5--5--5--5--5-|--5--5--5--5--5--5-|
|-9--9--9--9--9--9-|--7--7--7--7--7--7-|-5--5--5--5--5--5-|--5--5--5--5--5--5-|
|-7--7--7--7--7--7-|--5--5--5--5--5--5-|-3--3--3--3--3--3-|--3--3--3--3--3--3-|


  B5                 A5                  G5
  E  E  E  E  E  E    E  E  E  E  E  E   E  E  E  E  E  E
|------------------|-------------------|------------------|
|------------------|-------------------|------------------|
|---14-14-14-14-14-|-14-14-14-14-14-14-|---14-14-14-14-14-|
|----x--x--x--x--x-|--x--x--x--x--x--x-|----x--x--x--x--x-|
|---12-12-12-12-12-|-12-12-12-12-12-12-|---12-12-12-12-12-|
|-0----------------|-------------------|-0----------------|
|
| E  E  E  E  E  E    E  E  E  E  E  E   E  E  E  E  E  E
|------------------|-------------------|------------------|
|------------------|-------------------|------------------|
|------------------|-------------------|------------------|
|-9--9--9--9--9--9-|--7--7--7--7--7--7-|-5--5--5--5--5--5-|
|-9--9--9--9--9--9-|--7--7--7--7--7--7-|-5--5--5--5--5--5-|
|-7--7--7--7--7--7-|--5--5--5--5--5--5-|-3--3--3--3--3--3-|


   E       +E   E       +E   E       +E
|----------------------------------------|
|----------------------------------------|
|-14b15.5r(14)-14b15.5r(14)-14b15.5r(14)-|
|--xb15.5r=(x)--xb15.5r=(x)--xb15.5r=(x)-|
|-12b13.5r(12)-12b13.5r(12)-12b13.5r(12)-|
|----------------------------------------|
|
|  E        E   E        E   E        E
|----------------------------------------|
|----------------------------------------|
|----------------------------------------|
|--5--------5---5--------5---5--------5--|
|--5--------5---5--------5---5--------5--|
|--3--------3---3--------3---3--------3--|


 Outro
  B5
   H.         +H.         +H.         +H.
|----------|-----------|-----------|---------|
|----------|-----------|-----------|---------|
|-16-------|-(16)------|-(16)------|-(16)----|
|--x-------|--(x)------|--(x)------|--(x)----|
|-14-------|-(14)------|-(14)------|-(14)----|
|----------|-----------|-----------|---------|
|
|  H.         +H.         +H.         +H.
|----------|-----------|-----------|---------|
|----------|-----------|-----------|---------|
|----------|-----------|-----------|---------|
|--9-------|--(9)------|--(9)------|--(9)----|
|--9-------|--(9)------|--(9)------|--(9)----|
|--7-------|--(7)------|--(7)------|--(7)----|


  Esus2/B
   Q    Q   Q     Q    Q   Q     Q    Q   Q     Q    Q   Q
|------14------|-15-------15--|------14------|-15-------15--|
|-12-------12--|------12------|-12-------12--|------12------|
|--------------|--------------|--------------|--------------|
|--------------|--------------|--------------|--------------|
|--------------|--------------|--------------|--------------|
|--------------|--------------|--------------|--------------|
|
|  H.            +H.            +H.            +H.
|-^0-----------|-(0)----------|-(0)----------|-(0)----------|
|-^0-----------|-(0)----------|-(0)----------|-(0)----------|
|-^x-----------|-(x)----------|-(x)----------|-(x)----------|
|-^9-----------|-(9)----------|-(9)----------|-(9)----------|
|-^9-----------|-(9)----------|-(9)----------|-(9)----------|
|-^7-----------|-(7)----------|-(7)----------|-(7)----------|


  N.C.
   Q    Q   Q     Q    Q   Q     Q    Q   Q      Q    Q   Q
|------14------|-15-------15--|------14------|--15-------15--|
|-12-------12--|------12------|-12-------12--|-------12------|
|--------------|--------------|--------------|---------------|
|--------------|--------------|--------------|---------------|
|--------------|--------------|--------------|---------------|
|--------------|--------------|--------------|---------------|
|
|  H.             H.             H.             +H.
|--------------|--------------|-17-----------|-(17)----------|
|-14-----------|-15-----------|--------------|---------------|
|--------------|--------------|--------------|---------------|
|--------------|--------------|--------------|---------------|
|--------------|--------------|--------------|---------------|
|--------------|--------------|--------------|---------------|


    Q    Q   Q      Q    Q   Q     H.              H.
|-------14------|--15-------15--|-15\----------|---0-----|
|--12-------12--|-------12------|--------------|---------|
|---------------|---------------|--------------|---------|
|---------------|---------------|--------------|---------|
|---------------|---------------|--------------|---------|
|---------------|---------------|--------------|---------|
|
|  +H.             +H.             Q    Q   Q     +H.
|-(17)----------|-(17)----------|--------------|---------|
|---------------|---------------|-14---15--14--|-(14)----|
|---------------|---------------|--------------|---------|
|---------------|---------------|--------------|---------|
|---------------|---------------|--------------|---------|
|---------------|---------------|--------------|---------|


  B5
   H.         H.         H.         H.
|----------|----------|----------|--------*|
|----------|----------|----------|--------*|
|----------|----------|----------|--------*|
|----------|----------|----------|--------*|
|----------|----------|----------|--------*|
|----------|----------|----------|--------*|
|
|  H.        +H.        +H.        +H.
|----------|----------|----------|--------*|
|----------|----------|----------|--------*|
|----------|----------|----------|--------*|
|-(9)------|-(9)------|-(9)------|-(9)----*|
|-(9)------|-(9)------|-(9)------|-(9)----*|
|-(7)------|-(7)------|-(7)------|-(7)----*|



Duration Legend
---------------
W - whole; H - half; Q - quarter; E - 8th; S - 16th; T - 32nd; X - 64th; a - acciaccatura
+ - note tied to previous; . - note dotted; .. - note double dotted
Uncapitalized letters represent notes that are staccato (1/2 duration)
Irregular groupings are notated above the duration line
Duration letters will always appear directly above the note/fret number it represents the
duration for.  Duration letters with no fret number below them represent rests.  Multi-
bar rests are notated in the form Wxn, where n is the number of bars to rest for.  Low
melody durations appear below the staff

Tablature Legend
----------------
 h   - hammer-on
 p   - pull-off
 b   - bend
 pb  - pre-bend
 r   - bend release (if no number after the r, then release immediately)
 /\  - slide into or out of (from/to "nowhere")
 s   - legato slide
 S   - shift slide
 - natural harmonic
[n]  - artificial harmonic
n(n) - tapped harmonic
 ~   - vibrato
 tr  - trill
 T   - tap
 TP  - trem. picking
 PM  - palm muting
\n/  - tremolo bar dip; n = amount to dip
 \n  - tremolo bar down
 n/  - tremolo bar up
/n\  - tremolo bar inverted dip
 =   - hold bend; also acts as connecting device for hammers/pulls
 <> - volume swell (louder/softer)
 x   - on rhythm slash represents muted slash
 o   - on rhythm slash represents single note slash

Misc Legend
-----------
 |  - bar
||  - double bar
||o - repeat start
o|| - repeat end
*|  - double bar (ending)
 :  - bar (freetime)
 $  - Segno
 &  - Coda
Tempo markers -  = BPM(8/16=s8/s16), where s8 = swing 8ths, s16 = swing 16ths
Comments