Alexisonfire - Pulmonary Archery Chords & Tabs

 

Pulmonary Archery Chords & Tabs

Alexisonfire Chords & Tabs

Version: 4 Type: Tab 0 ratings
1 star 2 stars 3 stars 4 stars 5 stars
comments

Pulmonary Archery Tab

   
-----------------------------------------------------------------------------
		     Pulmonary Archery-ALEXISONFIRE
-----------------------------------------------------------------------------
Tabbed by:Jake Nolan
Email:Raging-Taco@singedband.cjb.net

these tabs are a hell of alot better than the other tabs for this song on this
site. yeah...these tabs sound rite on.

Tuning:Eb, half step down


eb|---------------------------------------------------------------------|
Bb|---------5-5---------------------------------------------------------|
Gb|-----2-2----------------6-6-7-7-6-6----------------------------------|
Db|-4-4------------0-0-4-4-------------44-------------------------------|
Ab|---------------------------------------------------------------------|
Eb|---------------------------------------------------------------------|

eb|-------------5-5-----------------------------------------------------|
Bb|---------5-5---------------------------------------------------------|
Gb|-----2-2-----------------6-6-7-7-6-6---------------------------------|
Db|-4-4-------------0-0-4-4---------------------------------------------|
Ab|---------------------------------------------------------------------|
Eb|---------------------------------------------------------------------|

Guitar 1
eb|---------------------------------------------------------------------|
Bb|---------------------------------------------------------------------|
Gb|---------------------------------------------------------------------|
Db|---------------------------------------------------------------------|
Ab|---14-14-12-12-17-17-14-14-12-14-12-14-------------------------------|
Eb|---------------------------------------------------------------------|

Guitar 2
eb|---------------------------------------------------------------------|
Bb|---------------------------------------5-----------------------------|
Gb|---------------------------------------2-----------------------------|
Db|---------------------------------------4-----------------------------|
Ab|---------------------------------------------------------------------|
Eb|---------------------------------------------------------------------|

Guitar 1
eb|---------------------------------------------------------------------|
Bb|---------------------------------------------------------------------|
Gb|---------------------------------------------------------------------|
Db|---------------------------------------------------------------------|
Ab|---14-14-12-12-17-17-14-14-12-14-12-14-------------------------------|
Eb|---------------------------------------------------------------------|

Guitar 2
eb|---------------------------------------------------------------------|
Bb|---------------------------------------5-----------------------------|
Gb|---------------------------------------2-----------------------------|
Db|---------------------------------------4-----------------------------|
Ab|---------------------------------------------------------------------|
Eb|---------------------------------------------------------------------|

Guitar 1
eb|---------------------------------------------------------------------|
Bb|-----5---------------5-----------------------------------------------|
Gb|---2---------6-----2---------6---------------------------------------|
Db|-4-------0-4-----4-------0-4-----------------------------------------|
Ab|---------------------------------------------------------------------|
Eb|---------------------------------------------------------------------|

Guitar 2
eb|-----12--------------12----------------------------------------------|
Bb|---10--------14----10--------14-14-14-14-14-14-14-14-14-14-14-14-14--|
Gb|-11--------11----11--------11----------------------------------------|
Db|---------12--------------12------------------------------------------|
Ab|---------------------------------------------------------------------|
Eb|---------------------------------------------------------------------|

Guitar 1 (x2)
eb|---------------------------------------------------------------------|
Bb|----------14----14----14----14---------16----16----16----------------|
Gb|------------14----14----14----14---------16----16----16--------------|
Db|-16-16-16-----16----16----16------16-16----16----16----16------------|
Ab|---------------------------------------------------------------------|
Eb|---------------------------------------------------------------------|

Guitar 2
eb|---------------------------------------------------------------------|
Bb|-5-5-5-5-5-5-5-5-5-5-5-5-5-5-5-5-5-5-5-5-5-5-------------------------|
Gb|-2-2-2-2-2-2-2-2-2-2-2-2-2-2-2-2-2-2-2-2-2-2-------------------------|
Db|-4-4-4-4-4-4-4-4-4-4-4-0-0-0-0-0-0-0-0-0-0-0-------------------------|
Ab|---------------------------------------------------------------------|
Eb|---------------------------------------------------------------------|

Guitar 1
eb|-9-9-7-7-12-12-9-9-7-9-7-7-9-9-5-5-5-9-7-----------------------------|
Bb|---------------------------------------------------------------------|
Gb|---------------------------------------------------------------------|
Db|---------------------------------------------------------------------|
Ab|---------------------------------------------------------------------|
Eb|---------------------------------------------------------------------|
[ Tab from: http://www.guitartabs.cc/tabs/a/alexisonfire/pulmonary_archery_tab_ver_4.html ]
Guitar 2 
eb|---------------------------------------------------------------------|
Bb|-5-5-5-5-5-5-5-5-5-5-5-5-5-5-5-5-5-5-5-5-5-5-------------------------|
Gb|-2-2-2-2-2-2-2-2-2-2-2-2-2-2-2-2-2-2-2-2-2-2-------------------------|
Db|-4-4-4-4-4-4-4-4-4-4-4-0-0-0-0-0-0-0-0-0-0-0-------------------------|
Ab|---------------------------------------------------------------------|
Eb|---------------------------------------------------------------------|

Guitar 1
eb|---------------------------------------------------------------------|
Bb|---------5---------5---------5---------5--------5---------5----------|
Gb|-----2-----2---2-----2---2---------2-----2---2----2---2--------------|
Db|-4-4---4-----4---4-----4---4---0-0---0-----0---0----0---0------------|
Ab|---------------------------------------------------------------------|
Eb|---------------------------------------------------------------------|

Guitar 2
eb|-------------------5-4-0--------------------5-4-0--------------------|
Bb|-5-5-5-5-5-5-5-5-5--------5-5-5-5-5-5-5-5-5--------------------------|
Gb|-2-2-2-2-2-2-2-2-2--------2-2-2-2-2-2-2-2-2--------------------------|
Db|-4-4-4-4-4-4-4-4-4--------0-0-0-0-0-0-0-0-0--------------------------|
Ab|---------------------------------------------------------------------|
Eb|---------------------------------------------------------------------|

Guitar 1
eb|---------------------------------------------------------------------|
Bb|---------------------------------------------------------------------|
Gb|---------------------------------------------------------------------|
Db|-4-4-4-6-6-6-7-7-7-7-6----4-4-4-6-6-6-7-7-7-7-6----------------------|
Ab|-----------------------6------------------------6--------------------|
Eb|---------------------------------------------------------------------|

Guitar 2
eb|---------------------------------------------------------------------|
Bb|------5---5-5-5-5-5-------5---5-5-5-5-5-------5---5-5-5-5-5-------5--|
Gb|----2-----2-2-2-2-2-----2-----2-2-2-2-2-----2-----2-2-2-2-2-----2----|
Db|--4-------0-0-0-0-0---4-------0-0-0-0-0---4-------0-0-0-0-0---4------|
Ab|---------------------------------------------------------------------|
Eb|---------------------------------------------------------------------|

Guitar 1
eb|-----12--5-5-5-5-5-------12------------------12------------------12--|
Bb|---10----2-2-2-2-2-----10----5-5-5-5-5-----10----5-5-5-5-5-----10----|
Gb|-11------0-0-0-0-0---12------2-2-2-2-2---11------2-2-2-2-2---11------|
Db|-----------------------------0-0-0-0-0-----------0-0-0-0-0-----------|
Ab|---------------------------------------------------------------------|
Eb|---------------------------------------------------------------------|

Guitar 2(x2)
eb|---------------------------------------------------------------------|
Bb|-x-x-5------------------x-x-5----------------------------------------|
Gb|-x-x-2------------------x-x-2----------------------------------------|
Db|-x-x-4------------------x-x-4----------------------------------------|
Ab|---------------------------------------------------------------------|
Eb|---------------------------------------------------------------------|

Guitar 1 (x2)
eb|---------------------------------------------------------------------|
Bb|-x-x-5----5----5--5--5--x-x-5----5----5--5--5--5---------------------|
Gb|-x-x-2------2---2--2----x-x-2------2---2--2--2-----------------------|
Db|-x-x-4--4-----4--4--4---x-x-4--4-----4--4--4--4----------------------|
Ab|---------------------------------------------------------------------|
Eb|---------------------------------------------------------------------|

Guitar 1 AND 2 (x2)
eb|---------------------------------------------------------------------|
Bb|-5-5-5-5----5-5-5-5----5-5-5-5----5-5-5-5-5-5------------------------|
Gb|-2-2-2-2----2-2-2-2----2-2-2-2----2-2-2-2-2-2------------------------|
Db|-4-4-4-4----4-4-4-4----4-4-4-4----4-4-4-4-4-0------------------------|
Ab|---------------------------------------------------------------------|
Eb|---------------------------------------------------------------------|

Guitar 2(x4)
eb|---------------------------------------------------------------------|
Bb|-5-5-5-5-5-5-5-5-5-5-5-5-5-5-5-5-5-5-5-5-5-5-------------------------|
Gb|-2-2-2-2-2-2-2-2-2-2-2-2-2-2-2-2-2-2-2-2-2-2-------------------------|
Db|-4-4-4-4-4-4-4-4-4-4-4-0-0-0-0-0-0-0-0-0-0-0-------------------------|
Ab|---------------------------------------------------------------------|
Eb|---------------------------------------------------------------------|

Guitar 1(x4)
eb|-9-9-7-7-12-12-9-9-7-9-7-7-9-9-5-5-5-9-7-----------------------------|
Bb|---------------------------------------------------------------------|
Gb|---------------------------------------------------------------------|
Db|---------------------------------------------------------------------|
Ab|---------------------------------------------------------------------|
Eb|---------------------------------------------------------------------|

Guitar 1(x4)
eb|-5-5-5-5-5-5-5-5-5-5-5-5-5-5-5-5-5-----------------------------------|
Bb|-2-2-2-2-2-2-2-2-2-2-2-2-2-2-2-2-2-----------------------------------|
Gb|-4-4-4-4-4-4-4-4-4-4-4-4-4-4-4-4-0-----------------------------------|
Db|---------------------------------------------------------------------|
Ab|---------------------------------------------------------------------|
Eb|---------------------------------------------------------------------|

Guitar 1
eb|-9-7-9-7-9-7-9-7-9-7-9-7-9-7-9-7-12----------------------------------|
Bb|---------------------------------------------------------------------|
Gb|---------------------------------------------------------------------|
Db|---------------------------------------------------------------------|
Ab|---------------------------------------------------------------------|
Eb|---------------------------------------------------------------------|


| /  slide up
| \  slide down
| h  hammer-on
| p  pull-off
| ~  vibrato
| +  harmonic
| x  Mute note
=============================================================================
Comments