Alexisonfire - Pulmonary Archery Chords & Tabs

 

Pulmonary Archery Chords & Tabs

Alexisonfire Chords & Tabs

Version: 2 Type: Tab 0 ratings
1 star 2 stars 3 stars 4 stars 5 stars
comments

Pulmonary Archery Tab

   
                        Alexisonfire - Pulmonary Archery
                          Tabbed entirely by: J@ck0

                     And when I say entirely it's ENTIRELY!!


It's a so cool song. May attention to the space between 
numbers. Sometimes that will change all the rytm. It's not my first 
tab but this track is tough to tabbed cuz there is two distortion
guitars play lead at the beginning. And humm.. if you find a mistake
in this guitar tab contact me at bretthulln16@hotmail.com 
Have Fun!! 
 							J@ck0

                      Character signification:
                          b = Bend
                          r = Release
                          ~ = Vibrato
                    <-   -> = Specified Section

Intro: 
*******************************************************************
*-----------------------------------------------------------------*
*-----------------------------------------------------------------*
*-----------------------------------------------------------------*
*---3-3-6-6--10--------3-3-10--11-11-10-11p10---------------------*
*------------------4-4--------------------------------------------*
*-----------------------------------------------------------------*
*								  *
*-----------------------------------------------------------------*
*----------------8------------------------------------------------*
*---3-3-6-6--10---------------------------------------------------*
*----------------------3-3-10--11-11-10-11p10---------------------*
*------------------4-4--------------------------------------------*
*-----------------------------------------------------------------*
*								  *
*-----------------------------------------------------------------*
*-----------------------------------------------------------------*
*-----------------------------------------------------------------*
*---3-3-6-6--10--------3-3-10--11-11-10-11p10---------------------*
*------------------4-4--------------------------------------------*
*-----------------------------------------------------------------*
*								  *
*----------------3--3---------------------------------------------*
*-----------------------------------------------------------------*
*---3-3-6-6--10---------------------------------------------------*
*---------------------------3-3-10--11-11-10-11p10----------------*
*-----------------------4-4---------------------------------------*
*-----------------------------------------------------------------*
*                                                                 *
*-----------------------------------------------------------------*
*---13-13-11-11/16-16-13-13-11-13-11-13--13-----------------------*
*-----------------------------------------------------------------*
*-----------------------------------------------------------------*
*-----------------------------------------------------------------*
*-----------------------------------------------------------------*
*                                                                 *
*-----------------------------------------------------------------*
*---13-13-11-11/16-16-13-13-11-13-11-13--13-----------------------*
*-----------------------------------------------------------------*
*-----------------------------------------------------------------*
*-----------------------------------------------------------------*
*-----------------------------------------------------------------*
*******************************************************************

--Distortion Open Here--

***************************************************************************
*                                                <- Very Fast Picking     *
*-----------------------------------------------------------------        *
*---6--9--13---6--9--13-------6--9--13-----6--9--1313131313131313-        *
*-----------------------------------------------------------------        *
*-----------------------------------------------------------------        *
*----------------------2/15/2-------------------------------------        *
*-----------------------------------------------------------------        *
*                 ->						          *
*-----------------------------------------------------------------        *
*---1313131313131313----------------------------------------------        *
*-----------------------------------------------------------------        *
*-----------------------------------------------------------------        *
*-----------------------------------------------------------------        *
*-----------------------------------------------------------------        *
*									  *
*  At 01:02 the second guitar play this riff:                             *
*------88-88-88-8---------------------------88-88-88-8--------------------*
*---664--6--6--6------664-99-99-99-9-----664--6--6--6-----664-9~~---------*
*---------------------------8--8--8---------------------------------------*
*-------------------------------------------------------------------------*
*-------------------------------------------------------------------------*
*-------------------------------------------------------------------------*
***************************************************************************

Two guitars play this riff 2 times:
****************************************************************************
*-----------------------------------------------------------------         *
*---6-9-13-131313---6-9-13-13-1414--------------------------------         *
*-----------------------------------------------------------------         *
*-----------------------------------------------------------------         *
*-----------------------------------------------------------------         *
*-----------------------------------------------------------------         *
****************************************************************************

[ Tab from: http://www.guitartabs.cc/tabs/a/alexisonfire/pulmonary_archery_tab_ver_2.html ]
**********************************************************
*The Guitar player who do the back voice play this part: *
*    2X Muted Distortion & 2X with Distortion:           *
*    -------------------------------------               *
*    -------------------------------------               *
*    -------------------------------------               *
*    --1010101010101010-1111111111111111--               *
*    --1010101010101010-1111111111111111--               *
*    --8-8-8-8-8-8-8-8--9-9-9-9-9-9-9-9---               *
*                                                        *
*The other guitar plays these riffs:                     *
*    ---------8--8----------8--8----                     *
*    ---6--9-----------6-9----------                     *
*    -------------------------------     play 4X         *
*    -------------------------------                     *
*    -------------------------------                     *
*    -------------------------------                     *
*                                                        *
*    -------------8/1--------                            *
*    ---666-9---9------------                            *
*    ------------------------     play 4X                *
*    ------------------------                            *
*    ------------------------                            *
*    ------------------------                            *
*                                                        *
*    -------------                                       *
*    ---161613\1--                                       *
*    -------------                                       *
*    -------------                                       *
*    -------------                                       *
*    -------------                                       *   
**********************************************************


****************************************************************************
*Back voice Guitar Player:                                                 *
*--------------------------------------------------------------------------*
*--------------------------------------------------------------------------*
*---5--8--12--1212-----5--8--12--1212-------5--8--12--1212-------5--8--12~-*
*---5--8--12--1212-----5--8--12--1212-------5--8--12--1212-------5--8--12~-*
*---3--6--10--1010-----3--6--10--1010-------3--6--10--1010-------3--6--10~-*
*--------------------------------------------------------------------------*
*Other guitar:                                                             *
*									   *
*------------------							   *
*---6---9---13~~---							   *
*------------------    play 4X                                             *
*------------------							   *
*------------------							   *
*------------------							   *
*                  							   *
****************************************************************************


*************************************************
*Back Voice Guitar Player:                      *
*2X Muted Distortion & 2X with Distortion:      *
*-------------------------------------          *
*-------------------------------------          *
*-------------------------------------          *
*--1010101010101010-1111111111111111--          *
*--1010101010101010-1111111111111111--          *
*--8-8-8-8-8-8-8-8--9-9-9-9-9-9-9-9---          *
*                                               *
*Other Guitar:                                  *
*------------------------                       *
*---------6666--6-9~~----                       *
*---5-8------------------    play 4X            *
*---5-8------------------                       *
*---3-6------------------                       *
*------------------------                       *
*************************************************

Two Guitars play 2 times:
*************************************************************
*------------------------------------------------           *
*------------------------------------------------           *
*---5/4-5-5-----5/4-5-4------5/4-5-5----55--6~~--           *
*---5/4-5-5-----5/4-5-6------5/4-5-5----55--6~~--           *
*---3/2-3-3-----3/2-3-6------3/2-3-3----33--4~~--           *
*------------------------------------------------           *
*************************************************************

Ending:
*********************************************************
*This is the part of the Back Voice Guitar Player:      *
*-------------------------------------                  *
*-------------------------------------                  *
*-------------------------------------   play 4X        *
*--1010101010101010-1111111111111111--                  *
*--1010101010101010-1111111111111111--                  *
*--8-8-8-8-8-8-8-8--9-9-9-9-9-9-9-9---                  *
*                                                       *
*----------------------------------------------------   * 
*----------------------------------------------------   *
*---666666666666--5--6~~~----------------------------   *
*---666666666666--5--6~~~----------------------------   *
*---444444444444--3--4~~~----------------------------   *
*----------------------------------------------------   *
*                                                       *
*                                                       *
*                                                       *
*And this is the ending of the other guitar:            *
*-----------------------------------------              *
*---/-13-11-/16--16-16-/-11-13-11-/9--9-9-              *
*-----------------------------------------    play 4X   *
*-----------------------------------------              *
*-----------------------------------------              *
*-----------------------------------------              *
*                                                       *
*--------------------------------------------           *
*---/-1616161616161616161616161616b17r16~~~--           *
*--------------------------------------------           *
*--------------------------------------------           *
*--------------------------------------------           *
*--------------------------------------------           *
*********************************************************

The little riff we can hear at the end when the distortion 
for the other guitar is holding: (play 3 times)
*************************
*-----------------------*
*-----------------------*
*-----------------------*
*-----7--6----2---------*
*-----------------------*
*-----------------------*
*************************

--Distortion Close Here--




***********************************************************************************
***********************************************************************************
**                                LYRICS                                         **
***********************************************************************************
***********************************************************************************
**                                                                               **
** its never too late to be early or to try and maintain some scrap of 	         **
** integrity and certainty…I guess. But I wont apologize and 1977 was a long     **
** time ago. I dont care how things were I wont apologize. Fuck you. the Alamo   **
** has been penetrated and there is little hope for the white man so hop on      **
** your rainbow and ride it into oblivion. For all I care you can be early or    **
** late, what ever.                                                              **
**                                                                               **
***********************************************************************************
***********************************************************************************

Alexisonfire Web Site: www.theonlybandever.com
Comments