Alexisonfire - No Transitory Chords & Tabs

 

No Transitory Chords & Tabs

Alexisonfire Chords & Tabs

Version: 2 Type: Tab 0 ratings
1 star 2 stars 3 stars 4 stars 5 stars
comments

No Transitory Tab

No Transitory

Alexisonfire

Imnotwearinganypants


Intro 1 x 4
eb[-------------------------------------------------------9b10------------]
Bb[-10-10---999--5-5s7---10-10---999--5-5s7-------------------------------]
Gb[-----------------------------------------------------------------------]
Db[-----------------------------------------------------------------------]
Ab[-----------------------------------------------------------------------]
Eb[-----------------------------------------------------------------------]


Intro 2 x 4
eb[------------------------------------------------------------------------]
Bb[------------------------------------------------------------------------]
Gb[------------------------------------------------------------------------]
Db[--9-9-9-9-9-9---9-9-9-9-9-9---6-6-6-6-6-6---(2)-------------------------]
Ab[--7-7-7-7-7-7---7-7-7-7-7-7---4-4-4-4-4-4(0)---------------------------]
Eb[------------------------------------------------------------------------]


Then into

   Riff x 3
eb[------------------------------------------------------------------------]
Bb[------------------------------------------------------------------------]
Gb[------------------------------------------------------------------------]
Db[----7-6-(2)---7-6-2s4-(4)-----------4--4-4-4-4--4-4--4-4-4-4------------]
Ab[------------------------------------4--4-4-4-4--4-4--4-4-4-4------------]
Eb[------------------------------------2--2-2-2-2--2-2--2-2-2-2------------]


On fourth time only do
Db[----7-6-(2)---7-6-2s4-(4)---


eb[------------------------------------------------------------------------]
Bb[------------------------------------------------------------------------]
Gb[----6-6-6-6-6-6---------------------------------------------------------]
Db[----6-6-6-6-6-6----7-7-7-7-7------4--4-4-4--4-4-4--4-4-4-4-4------------]
Ab[----4-4-4-4-4-4----7-7-7-7-7------4--4-4-4--4-4-4--4-4-4-4-4------------]
Eb[-------------------5-5-5-5-5------2--2-2-2--2-2-2--2-2-2-2-2------------]


eb[-------------------------------------------------------------------------|
Bb[-------------------------------------------------------------------------|
Gb[---------------------------9-6---------------9-6-11----------------------|
Db[----------------------2s4--------------2s4-------------------------------|
Ab[-------------------------------------------------------------------------|
Eb[-------------------------------------------------------------------------|
     "So this is what they call..."


     x 4
eb[---------------------------------------------------------------------------|
Bb[---------------------------------------------------------------------------|
Gb[---------------------------------------------------------------------------|
Db[--4--4-4-4-4--4-4-4-4--4-4---9-9-9-9-9-9-9--7-7-7-7-7-7-7------------------|
Ab[--4--4-4-4-4--4-4-4-4--4-4---9-9-9-9-9-9-9--7-7-7-7-7-7-7------------------|
Eb[--2--2-2-2-2--2-2-2-2--2-2---7-7-7-7-7-7-7--5-5-5-5-5-5-5------------------|
[ Tab from: http://www.guitartabs.cc/tabs/a/alexisonfire/no_transitory_tab_ver_2.html ]
      x 4
eb[-12p9-10p9-9--10p9-9-----------------------------------------------------|
Bb[---------------------10p9-10p9-7s9---------------------------------------|
Gb[-------------------------------------------------------------------------|
Db[-------------------------------------------------------------------------|
Ab[-------------------------------------------------------------------------|
Eb[-------------------------------------------------------------------------|

eb[---------------------------------------------------------------------------|
Bb[---------------------------------------------------------------------------|
Gb[--------9-(6)---------9-6-(11)---------------------------------------------|
Db[---2s4-----------2s4--------------------4--4-4-4--4-4-4-4-4-4-4-4----------|
Ab[----------------------------------------4--4-4-4--4-4-4-4-4-4-4-4----------|
Eb[----------------------------------------2--2-2-2--2-2-2-2-2-2-2-2----------|
 "It is my most..."                                                "GOOOOOO"


eb[-------------------------------------------------------------------------|
Bb[-------------------------------------------------------------------------|
Gb[-------------------------------------------------------------------------|
Db[--9--9-9-9-9-9-9-9--7-7-7-7-7-7-7-7----4-4-4-4-4-4-4-4-------------------|
Ab[--9--9-9-9-9-9-9-9--7-7-7-7-7-7-7-7----4-4-4-4-4-4-4-4-------------------|
Eb[--7--7-7-7-7-7-7-7--5-5-5-5-5-5-5-5----2-2-2-2-2-2-2-2-------------------|
  "Tomorrow..."

eb[-------------------------------------------------------------------------|
Bb[-------------------------------------------------------------------------|
Gb[------9-(6)-----------9-6-(11)-------------------------------------------|
Db[--2s4-------------2s4----------------------------------------------------|
Ab[-------------------------------------------------------------------------|
Eb[-------------------------------------------------------------------------|
"So now that your whole world...."

eb[---------------------------------------------------------------------------|
Bb[---------------------------------------------------------------------------|
Gb[---------------------------------------------------------------------------|
Db[--9--9-9-9-9-9-9-9--7-7-7-7-7-7-7-7----4-4-4-4-4-4-4-4---------------------|
Ab[--9--9-9-9-9-9-9-9--7-7-7-7-7-7-7-7----4-4-4-4-4-4-4-4---------------------|
Eb[--7--7-7-7-7-7-7-7--5-5-5-5-5-5-5-5----2-2-2-2-2-2-2-2---------------------|
  "Tomorrow..."

End on a crunching
eb[---------------------------------------------------------------------------|
Bb[---------------------------------------------------------------------------|
Gb[---------------------------------------------------------------------------|
Db[--4------------------------------------------------------------------------|
Ab[--4------------------------------------------------------------------------|
Eb[--2------------------------------------------------------------------------|

This song is amazing it took me a little while to find out most of it and its not 
timed so rate it and have fun.
Comments