Alexisonfire - No Transitory Chords & Tabs

 

No Transitory Chords & Tabs

Alexisonfire Chords & Tabs

Version: 1 Type: Bass Tab 0 ratings
1 star 2 stars 3 stars 4 stars 5 stars
comments

No Transitory Bass Tab

   
Intro:
  C              Ab              F
G-----------------------------------------------------------------|
D-----------------------------------------------------------------|
A-3--3--3--3-3-3--------------------------------------------------|(X3)
E----------------4--4--4--4-4-4--11111111111111111111111111111111-|

  C              Ab
G-------------------------------|
D-------------------------------|
A-3--3--3--3-3-3----------------|
E----------------4--4--4--4-4-4-|

Verse 1:
  F            Ab           Bb           Ab
G----------------------------------------------------|
D----------------------------------------------------|
A---------------------------111--111--1--------------| X4
E-111--111--1--444--4--444---------------444--4--444-|

Pre-Chorus:
  F                                Bb               Ab
G--------------------------------------------------------------------|
D--------------------------------------------------------------------|
A----------------------------------1111111111111111------------------|(X2)
E-11111111111111111111111111111111------------------4444444444444444-|

  F
G----------------------------------|
D----------------------------------|
A----------------------------------|
E-11111111111111111111111111111111-|
[ Tab from: http://www.guitartabs.cc/tabs/a/alexisonfire/no_transitory_btab.html ]
Chorus:
  Bb               Ab               F
G--------------------------------------------------------------------|
D--------------------------------------------------------------------|
A-1111111111111111---------------------------------------------------|(X3)
E------------------4444444444444444-11111111111111111111111111111111-|

(Short screaming break)

  Bb               Ab               F
G--------------------------------------------------------------------|
D--------------------------------------------------------------------|
A-1111111111111111---------------------------------------------------|
E------------------4444444444444444-11111111111111111111111111111111-|

  Bb               Ab
G-----------------------------------|
D-----------------------------------|
A-1111111111111111------------------|
E------------------4444444444444444-|

Verse 2:
  F                         Bb           Ab
G-----------------------------------------------------|
D-----------------------------------------------------|
A---------------------------111--111--1---------------| X3
E-111--111--1--111--1--111---------------444--4--444--|

Chorus:
  Bb               Ab               F
G--------------------------------------------------------------------|
D--------------------------------------------------------------------|
A-1111111111111111---------------------------------------------------| X2
E------------------4444444444444444-11111111111111111111111111111111-|

(Crazy scream)

Song's over.
Comments